E-Chords
Turbowolf

Good Hand(Tabs)

Turbowolf

roll up this ad to continue

Key: D
Tuning: D Standard 
Intro on bass                       Intro just before main riff at start 
d|-------------------------------|-------------------------------------------| 
A|-------------------------------|-------------------------------------------| 
F|-------------------------------|-------------------------------------------| 
C|-------------------------------|-------------------------------------------| 
G|-3-2-2-2---2---2---------------|--3-2--------------------------------------| 
D|---------------------------x2--|------3------------------------------------| 

Main Riff 
d|---------------------------------------------------------------------------| 
A|---------------------------------------------------------------------------| 
F|---------------------------------------------------------------------------| 
C|-------3-------2----------------------3------2-----------------------------| 
G|---------5--5----3--3--5-2--2-----------5--5---3--3--5-2--3--2-------------| 
D|-5--5-------------------------3-5--5----------------------------3----------| 

d|---------------------------------------------------------------------------| 
A|---------------------------------------------------------------------------| 
F|---------------------------------------------------------------------------| 
C|-------3-------2----------------------3------2-----------------------------| 
G|---------5--5----3--3--5-2--2-----------5--5----4/-----14\-----------------| 
D|-5--5-------------------------3-5--5------------4/-----14\-----------------| 

Verse 
d|---------------------------------------------------------------------------| 
A|---------------------------------------------------------------------------| 
F|---------------------------------------------------------------------------| 
C|-------3-------2----------------------3------2-----------------------------| 
G|---------5--5----3--3--5-2--2-----------5--5---3--3--5-2--2----------------| 
D|-5--5-------------------------3-5--5------------------------3--------------| 

d|---------------------------------------------------------------------------| 
A|---------------------------------------------------------------------------| 
F|---------------------------------------------------------------------------| 
C|-------3-------2----------------------3------2-----------------------------| 
G|---------5--5----3--3--5-2--2-----------5--5---3--3--5-2--3--2-------------| 
D|-5--5-------------------------3-5--5----------------------------3----------| 

  (a sucker for a mystery) 
d|---------------------------------------------------------------------------| 
A|---------------------------------------------------------------------------| 
F|---------------------------------------------------------------------------| 
C|-------3-------2----------------------3------2-----------------------------| 
G|---------5--5----3--3--5-2--2-----------5--5---3--3--5-2--2----------------| 
D|-5--5-------------------------3-5--5------------------------3--------------| 

d|---------------------------------------------------------------------------| 
A|---------------------------------------------------------------------------| 
F|---------------------------------------------------------------------------| 
C|----3------2---------------------------------------------------------------| 
G|-----5--5---3--3--5-2--2---------------5-5-5-5-5-5-3-3-3-3-3-3-7-7-7-7-7-7-| 
D|5-5----------------------3-5-5-5-5-5-5-------------------------------------| 

Chorus - (No pain, no gain) 
clean                 dist. 
d|---------------------------------------------------------------------------| 
A|---------------------------------------------------------------------------| 
F|-5---------5--0--9---------------------------------------------------------| 
C|-5---------5--0--9-------x-x-x-----------------5--5------------------------| 
G|-3---------3--0--7-------x-x-x(0)--7--7--5--5--3--3--5--6------------------| 
D|-----------------0-------------0---5--5--3--3--------3--4------------------| 
         (No sun, no rain) 
clean                 dist. 
d|-----------------0---------------------------------------------------------| 
A|-----------------0-----(feedback)------------------------------------------| 
F|-5---------5--0--1---------------------------------------------------------| 
C|-5---------5--0--2-----------------------------5--5------------------------| 
G|-3---------3--0--2-----------------7--7--5--5--3--3--5--6------------------| 
D|-----------------0-----------------5--5--3--3--------3--4------------------| 
   
dist.         clean       (no pain, no gain, no sun, no rain) 
d|-----------------0---------------------------------------------------------| 
A|-----------------0---------------------------------------------------------| 
F|-----------------1---------------------------------------------------------| 
C|-5---------------2---------------------------------------------------------| 
G|-3---------------2----------------------------------------3-2--------------| 
D|-----------------0--------------------------------------------3------------| 

Riff 

d|---------------------------------------------------------------------------| 
A|---------------------------------------------------------------------------| 
F|---------------------------------------------------------------------------| 
C|-------3-------2----------------------3------2-----------------------------| 
G|---------5--5----3--3--5-2--2-----------5--5----4/-----14\-----------------| 
D|-5--5-------------------------3-5--5------------4/-----14\-----------------| 

Verse 
d|---------------------------------------------------------------------------| 
A|---------------------------------------------------------------------------| 
F|---------------------------------------------------------------------------| 
C|-------3-------2----------------------3------2-----------------------------| 
G|---------5--5----3--3--5-2--2-----------5--5---3--3--5-2--2----------------| 
D|-5--5-------------------------3-5--5------------------------3--------------| 

d|---------------------------------------------------------------------------| 
A|---------------------------------------------------------------------------| 
F|---------------------------------------------------------------------------| 
C|-------3-------2----------------------3------2-----------------------------| 
G|---------5--5----3--3--5-2--2-----------5--5---3--3--5-2--3--2-------------| 
D|-5--5-------------------------3-5--5----------------------------3----------| 

  (a sucker for a mystery) 
d|---------------------------------------------------------------------------| 
A|---------------------------------------------------------------------------| 
F|---------------------------------------------------------------------------| 
C|-------3-------2----------------------3------2-----------------------------| 
G|---------5--5----3--3--5-2--2-----------5--5---3--3--5-2--2----------------| 
D|-5--5-------------------------3-5--5------------------------3--------------| 

d|---------------------------------------------------------------------------| 
A|---------------------------------------------------------------------------| 
F|---------------------------------------------------------------------------| 
C|----3------2---------------------------------------------------------------| 
G|-----5--5---3--3--5-2--2---------------5-5-5-5-5-5-3-3-3-3-3-3-7-7-7-7-7-7-| 
D|5-5----------------------3-5-5-5-5-5-5-------------------------------------| 

Chorus - (No pain, no gain) 
clean                 dist. 
d|---------------------------------------------------------------------------| 
A|---------------------------------------------------------------------------| 
F|-5---------5--0--9---------------------------------------------------------| 
C|-5---------5--0--9----x---x---x----------------5--5------------------------| 
G|-3---------3--0--7----x---x---x----7--7--5--5--3--3--5--6------------------| 
D|-----------------0-----------------5--5--3--3--------3--4------------------| 
         (No sun, no rain) 
dist. throughout 
d|---------------------------------------------------------------------------| 
A|---------------------------------------------------------------------------| 
F|-(tremolo picking)---------------------------------------------------------| 
C|-5/------------5/------------------------------5--6--7--8------------------| 
G|-3/------------3/------------------7--7--5--5--3--4--5--6------------------| 
D|-----------------------------------5--5--3--3------------------------------| 
   
dist.         clean       (no pain, no gain, no sun, no rain) 
d|-----------------0---------------------------------------------------------| 
A|-----------------0---------------------------------------------------------| 
F|-----------------1---------------------------------------------------------| 
C|-5---------------2---------------------------------------------------------| 
G|-3---------------2---------------------------------------------------------| 
D|-----------------0---------------------------------------------------------| 

Bridge Part 1 

d|---------------------------------------------------------------------------| 
A|---------------------------------------------------------------------------| 
F|------------------------------------5--5-7-5-------------------------------| 
C|------------------------5---5-7-5-7--7-------7-----------------------------| 
G|-------3--3-5-3-5-7-5-7---7------------------------------------------------| 
D|-5-3-5---5-----------------------------------------------------------------| 

d|---------------------------------------------------------------------------| 
A|---------------------------------------------------------------------------| 
F|------------------------------------5--5-7-5-------------------------------| 
C|------------------------5---5-7-5-7--7-------7-----------------------------| 
G|-------3--3-5-3-5-7-5-7---7------------------------------------------------| 
D|-5-3-5---5-----------------------------------------------------------------| 

d|---------------------------------------------------------------------------| 
A|---------------------------------------------------------------------------| 
F|------------------------------------5--5-7-5-------------------------------| 
C|------------------------5---5-7-5-7--7-------7-----------------------------| 
G|-------3--3-5-3-5-7-5-7---7------------------------------------------------| 
D|-5-3-5---5-----------------------------------------------------------------| 

d|---------------------------------------------------------------------------| 
A|---------------------------------------------------------------------------| 
F|--------------------------5-----4------------------------------------------| 
C|------------------------7---7-5---5---5------7-----------------------------| 
G|-------3--3-5-3-5-7-5-7-------------7--5-7-8--8----------------------------| 
D|-5-3-5---5-----------------------------------------------------------------| 

d|---------------------------------------------------------------------------| 
A|---------------------------------------------------------------------------| 
F|---------------------------------------------------------------------------| 
C|---------------------------------------------------------------------------| 
G|-0--0-0-0-0-0--0-0-0-0-0--0-0-0-0-0--0-0-0-0/------------------------------| 
D|---------------------------------------------------------------------------| 

d|---------------------------------------------------------------------------| 
A|---------------------------------------------------------------------------| 
F|---------------------------------------------------------------------------| 
C|---------------------------------------------------------------------------| 
G|-12-12-12-12-12-12-12-12-12-12-12-12-12-12-12-12-12-12-12-12---------------| 
D|---------------------------------------------------------------------------| 

Bridge Part 2 

d|---------------------------------------------------------------------------| 
A|---------------------------------------------------------------------------| 
F|---------------------------------------------------------------------------| 
C|--------------------------3----------2-------------------------------------| 
G|----3----------2--------5---5-5--5-3---3-3--3------------------------------| 
D|--5---5-5--5-3---3-3--3----------------------------------------------------| 

d|---------------------------------------------------------------------------| 
A|---------------------------------------------------------------------------| 
F|---------------------------------------------------------------------------| 
C|--------------------------3----------2-------------------------------------| 
G|----3----------2--------5---5-5--5-3---3-3--3------------------------------| 
D|--5---5-5--5-3---3-3--3----------------------------------------------------| 

d|---------------------------------------------------------------------------| 
A|---------------------------------------------------------------------------| 
F|---------------------------------------------------------------------------| 
C|--------------------------3----------2-------------------------------------| 
G|----3----------2--------5---5-5--5-3---3-3--3------------------------------| 
D|--5---5-5--5-3---3-3--3----------------------------------------------------| 

d|---------------------------------------------------------------------------| 
A|---------------------------------------------------------------------------| 
F|---------------------------------------------------------------------------| 
C|--------------------------3----------2-------------------------------------| 
G|----3----------2--------5---5-5--5-3---3-3--3------------------------------| 
D|--5---5-5--5-3---3-3--3----------------------------------------------------| 

d|---------------------------------------------------------------------------| 
A|---------------------------------------------------------------------------| 
F|---------------------------------------------------------------------------| 
C|--------------------------3----------2-------------------------------------| 
G|----3----------2--------5---5-5--5-3---3-3--3------------------------------| 
D|--5---5-5--5-3---3-3--3----------------------------------------------------| 

d|---------------------------------------------------------------------------| 
A|---------------------------------------------------------------------------| 
F|---------------------------------------------------------------------------| 
C|---------------------------------------------------------------------------| 
G|----3----------2--------2-2-2-2-2-2-5-5-5-5-5-5----------------------------| 
D|--5---5-5--5-3---3-3--3----------------------------------------------------| 

Outro 

d|---------------------------------------------------------------------------| 
A|---------------------------------------------------------------------------| 
F|-------------------------------------5---5-7-5-7-7-5-7---------------------| 
C|-------------------------5---5-7-5-7---7---------------7-5-7-5-------------| 
G|-------3---3-5-3-5-7-5-7---7-----------------------------------7-5---------| 
D|-5-3-5---5---------------------------------------------------------8-7-6-5-| 


************************************ 

| /   slide up 
| \   slide down 
| h   hammer-on 
| p   pull-off 
| ~   vibrato 
| +   harmonic 
| x   Mute note 
| b   Bend 
| pb  Pre-bend 
| br  Bend release 
| pbr Pre-bend release 
| brb Bend release bend 

************************************ 
share this page

See Also: