E-Chords
Trust But Verify

Precipice Of Deception(Tabs)

Trust But Verify

Key: F#
   Intro (100 bpm) 
B |--------------------------------|--------------------------------| 
F#|------------------------------10|9-----------------------109-----| 
D |7-------------------------9-10--|----------------------------109-| 
A |--------------------------------|--------------------------------|     X2 
E |--------------------------------|--------------------------------| 
A |--------------------------------|--------------------------------| 



B |--------------------------------|--------------------------------| 
F#|------------------------------10|9-----------------------109-----| 
D |7-------------------------9-10--|----------------------------109-|\ 
A |--------------------------------|--------------------------------| \ 
E |--------------------------------|--------------------------------|  \ 
A |--------------------------------|--------------------------------|   \ 
  |                                                                 |    \ 
  |                                                                 |     X2 
  |                                                                 |    / 
B |------------------------------9-|8-----------------------9-8-----|   / 
F#|6-------------------------8-10--|----------------------------108-|  / 
D |--------------------------------|--------------------------------| / 
A |--------------------------------|--------------------------------|/ 
E |--------------------------------|--------------------------------| 
A |--------------------------------|--------------------------------| 



B |--------------------------------|--------------------------------|  
F#|------------------------------10|9-----------------------109-----| 
D |7-------------------------9-10--|----------------------------109-|       
A |--------------------------------|--------------------------------| 
E |--------------------------------|--------------------------------|            
A |--------------------------------|--------------------------------|  
  |                                                                 |                 
  |                                                                 |                        
  |                                                                 |                      
B |--------------------------------|--------------------------------| 
F#|--------------------------------|--------------------------------|                           
D |--------------------------------|--------------------------------|\ 
A |0-----------0---0---0---0-0-0-0-|2-----------2---2---2---2-2-2-2-| \                            
E |0-----------0---0---0---0-0-0-0-|2-----------2---2---2---2-2-2-2-|  \ 
A |0-----------0---0---0---0-0-0-0-|2-----------2---2---2---2-2-2-2-|   \                              
               .   .   .   . . . .              .   .   .   . . . .      \  
                                                                          X2 
                                                                         / 
B |--------------------------------|--------------------------------|   / 
F#|------------------------------10|9-----------------------109-----|  / 
D |7-------------------------9-10--|----------------------------109-| / 
A |--------------------------------|--------------------------------|/ 
E |--------------------------------|--------------------------------| 
A |--------------------------------|--------------------------------| 
  |                                                                 | 
  |                                                                 | 
  |                                                                 | 
B |--------------------------------|--------------------------------| 
F#|--------------------------------|--------------------------------| 
D |--------------------------------|--------------------------------| 
A |0-----------0---0---0---0-0-0-0-|3-----------3---3---3---3-3-3-3-| 
E |0-----------0---0---0---0-0-0-0-|3-----------3---3---3---3-3-3-3-| 
A |0-----------0---0---0---0-0-0-0-|3-----------3---3---3---3-3-3-3-| 
               .   .   .   . . . .              .   .   .   . . . .    


B |--------------------------------|--------------------------------|    
F#|--------------------------------|--------------------------------|   
D |--------------------------------|--------------------------------|  
A |0-------------------------------|-(Drums Start)--(Pick slide in)-| 
E |0-------------------------------|--------------------------------| 
A |0-------------------------------|--------------------------------| 


   Verse 
B |--------------------------------|--------------------------------| 
F#|--------------------------------|--------------------------------| 
D |--------------------------------|--------------------------------| 
A |--------3-----------2-------1---|--------3-----------2-------1---|\ 
E |----5---------4---------3-------|----5---------4---------3-------| \ 
A |0-0---0---0-0---0-0---0---0-----|0-0---0---0-0---0-0---0---0-----|  \ 
   . .   .   . .   . .   .   .      . .   .   . .   . .   .   .         X4? 
                                                                       / 
B |--------------------------------|--------------------------------| / 
F#|--------------------------------|--------------10--------9-------|/ 
D |--------------------------------|--------------10--------9-------| 
A |--------3-----------2-------1---|--------3-----------------------| 
E |----5---------4---------3-------|----5---------------------------| 
A |0-0---0---0-0---0-0---0---0-----|0-0---0---0-0-------------------| 
   . .   .   . .   . .   .   .      . .   .   . .    

   Pre-Chorus 
B |--------------------------------|--------------------------------| 
F#|--------------------------------|--------------------------------| 
D |--------------------------------|--------------------------------|  X4? 
A |2-------2-------2-------2-3-2-0-|2-------2-------0-0-0-0-3-3-3-3-| 
E |2-------2-------2-------2-3-2-0-|2-------2-------0-0-0-0-3-3-3-3-| 
A |2-------2-------2-------2-3-2-0-|2-------2-------0-0-0-0-3-3-3-3-| 
                                                    . . . . . . . . 

   Chorus 
B |--------------------------------|--------------------------------| 
F#|--------------------------------|--------------------------------| 
D |--------------------------------|--------------------------------| 
A |--------------------------------|--------------------------------| 
E |--------------------------------|----------------1-1-1-1-3-3-3-3-| 
A |0-0-0-0-0-0-0-0-0-0-3-3-3-3-3-3-|3-3-5-5-5-5-5-5-----------------| 
  |                                                                 | 
  |                                                                 | 
  |                                                                 | 
B |--------------------------------|--------------------------------| 
F#|--------------------------------|--------------------------------| 
D |--------------------------------|--------------------------------|\ 
A |--------------------------------|--------------------------------| \ 
E |8-8-8-8-8-8-8-8-8-8-3-3-3-3-3-3-|3-3-1-1-1-1-1-1-1-1-1-1-3-3-3-3-|  \ 
A |--------------------------------|--------------------------------|   \ 
                                                                         X2 
                                                                        / 
B |--------------------------------|--------------------------------|  / 
F#|--------------------------------|--------------------------------| / 
D |--------------------------------|----------------7-6-6-6-7-6-6-6-|/ 
A |--------------------------------|----------------x-x-x-x-x-x-x-x-| 
E |--------------------------------|----------------5-4-4-4-5-4-4-4-| 
A |0-0-0-0-0-0-0-0-0-0-3-3-3-3-3-3-|3-3-5-5-5-5-5-5-----------------| 
  |                                                                 | 
  |                                                                 | 
  |                                                                 | 
B |--------------------------------|--------------------------------| 
F#|--------------------------------|--------------------------------| 
D |--------------------------------|----------------109-9-9-109-9-9-| 
A |--------------------------------|----------------x-x-x-x-x-x-x-x-| 
E |8-8-8-8-8-8-8-8-8-8-3-3-3-3-3-3-|3-3-1-1-1-1-1-1-8-7-7-7-8-7-7-7-| 
A |--------------------------------|--------------------------------| 


   Interlude Fig 1 (120bpm) 
B |--------------------------------|--------------------------------| 
F#|--------------------------------|--------------------------------| 
D |3-----------3-----------3-------|2-----------2-----------2-------| 
A |----0-----------0-----------0---|----0-----------0-----------0---| 
E |--------------------------------|--------------------------------| 
A |5-------5---5-------5---5-------|3-------3---3-------3---3-------|   


B |--------------------------------|--------------------------------| 
F#|--------------------------------|--------------------------------| 
D |--------------------------------|--------------------------------| 
A |3-----------3-----------3-------|1-----------1-----------1-------| 
E |----0-----------0-----------0---|----1-----------1-----------1---| 
A |0-------0---0-------0---0-------|1-------1---1-------1---1-------|     


B |--------------------------------|--------------------------------|                x? 
F#|------------------------3-------|------------------------1-------|  
D |3-----------5-------------------|2-----------3-------------------| 
A |----0-----------0-----------0---|----0-----------0-----------0---| 
E |--------------------------------|--------------------------------| 
A |5-------5---5-------5---5-------|3-------3---3-------3---3-------|   


B |--------------------------------|--------------------------------| 
F#|--------------------------------|--------------------------------| 
D |------------------------2-------|0-----------0-----------0-------| 
A |3-----------3-------------------|----1-----------1-----------1---| 
E |----0-----------0-----------0---|--------------------------------| 
A |0-------0---0-------0---0-------|1-------1---1-------1---1-------|  


   Interlude Fig 2 
B |--------------------------------|--------------------------------|                 
F#|------------------------3-------|------------------------1-------|  
D |3-----------5-------------------|2-----------3-------------------| 
A |----0-----------0-----------0---|----0-----------0-----------0---| 
E |--------------------------------|--------------------------------| 
A |5-------5---5-------5---5-------|3-------3---3-------3---3-------|   
  |                                                                 | 
  |                                                                 | 
  |                                                                 | 
B |--------------------------------|--------------------------------|                 
F#|------------------------3-------|------------------------1-------|  
D |------------5-------------------|2-----------3-------------------| 
A |5---------------0-----------0---|3---0-----------0-----------0---| 
E |5-------------------------------|3-------------------------------| 
A |5-------5---5-------5---5-------|3-------3---3-------3---3-------|   


B |--------------------------------|--------------------------------| 
F#|--------------------------------|--------------------------------| 
D |------------------------2-------|0-----------0-----------0-------| 
A |3-----------3-------------------|----1-----------1-----------1---| 
E |----0-----------0-----------0---|--------------------------------| 
A |0-------0---0-------0---0-------|1-------1---1-------1---1-------|  
  |                                                                 | 
  |                                                                 | 
  |                                                                 | 
B |--------------------------------|--------------------------------| 
F#|--------------------------------|--------------------------------| 
D |--------------------------------|--------------------------------| 
A |0-------0-------0-------0-------|1-------1-------1-------1-------| 
E |0-------0-------0-------0-------|1-------1-------1-------1-------| 
A |0-------0-------0-------0-------|1-------1-------1-------1-------|  
   .       .       .       .        .       .       .       . 


   Interlude Fig 3 
B |--------------------------------|--------------------------------| 
F#|--------------------------------|--------------------------------|                           
D |--------------------------------|--------------------------------| 
A |5-----------5---5---5---5-5-5-5-|3-----------3---3---3---3-3-3-3-|                           
E |5-----------5---5---5---5-5-5-5-|3-----------3---3---3---3-3-3-3-|   
A |5-----------5---5---5---5-5-5-5-|3-----------3---3---3---3-3-3-3-|                              
               .   .   .   . . . .              .   .   .   . . . .    x? 

B |--------------------------------|--------------------------------| 
F#|--------------------------------|--------------------------------|                           
D |--------------------------------|--------------------------------| 
A |0-----------0---0---0---0-0-0-0-|1-----------1---1---1---1-1-1-1-|                           
E |0-----------0---0---0---0-0-0-0-|1-----------1---1---1---1-1-1-1-|   
A |0-----------0---0---0---0-0-0-0-|1-----------1---1---1---1-1-1-1-|                              
               .   .   .   . . . .              .   .   .   . . . .   

   Interlude Fig 4 
B |--------------------------------|--------------------------------| 
F#|--------------------------------|--------------------------------|                           
D |--------------------------------|--------------------------------| 
A |0---------------0---0---3---7---|0---------------0---0---3---7---|                           
E |0---------------0---0-----5---8-|0---------------0---0-----5---8-|   
A |0---------------0---0-----------|0---------------0---0-----------|                              
  |                .   .                            .   .           | 
  |                                                                 | 
  |                                                                 | 
B |--------------------------------|--------------------------------| 
F#|--------------------------------|--------------------------------|                           
D |------------------------2---5---|------------------------2---5---| 
A |0---------------0---0-----3---7-|0---------------0---0-----3---7-|                           
E |0---------------0---0-----------|0---------------0---0-----------|   
A |0---------------0---0-----------|0---------------0---0-----------|                              
                   .   .                            .   .   


B |--------------------------------|--------------------------------| 
F#|--------------------------------|--------------------------------|                           
D |------------------------3---7---|------------------------3---7---| 
A |5---------------5---5-----5---8-|5---------------5---5-----5---8-|                           
E |5---------------5---5-----------|5---------------5---5-----------|   
A |5---------------5---5-----------|5---------------5---5-----------|                              
  |                .   .                            .   .           | 
  |                                                                 | 
  |                                                                 | 
B |--------------------------------|--------------------------------| 
F#|--------------------------------|--------------------------------|                           
D |------------------------7---10--|------------------------7---10--| 
A |5---------------5---5-----8---12|5---------------5---5-----8---12|                           
E |5---------------5---5-----------|5---------------5---5-----------|   
A |5---------------5---5-----------|5---------------5---5-----------|                              
                   .   .                            .   .   

B |--------------------------------|--------------------------------| 
F#|--------------------------------|--------------------------------|                           
D |------------------------6---9---|------------------------6---9---| 
A |7---------------7---7-----7---11|5---------------7---7-----7---11|                           
E |7---------------7---7-----------|5---------------7---7-----------|   
A |7---------------7---7-----------|5---------------7---7-----------|                              
  |                .   .                            .   .           | 
  |                                                                 | 
  |                                                                 | 
B |--------------------------------|--------------------------------| 
F#|------------------------5---8---|------------------------5---8---|                           
D |--------------------------6---9-|--------------------------6---9-| 
A |7---------------7---7-----------|5---------------7---7-----------|                           
E |7---------------7---7-----------|5---------------7---7-----------|   
A |7---------------7---7-----------|5---------------7---7-----------|                              
                   .   .                            .   .   


B |--------------------------------|--------------------------------| 
F#|--------------------------------|--------------------------------|                           
D |------------------------6---9---|------------------------6---9---| 
A |7---------------7---7-----7---11|5---------------7---7-----7---11|                           
E |7---------------7---7-----------|5---------------7---7-----------|   
A |7---------------7---7-----------|5---------------7---7-----------|                              
  |                .   .                            .   .           | 
  |                                                                 | 
  |                                                                 | 
B |--------------------------------|--------------------------------| 
F#|------------------------5---8---|------------------------5---8---|                           
D |--------------------------6---9-|--------------------------6---9-| 
A |7---------------7---7-----------|5---------------7---7-----------|                           
E |7---------------7---7-----------|5---------------7---7-----------|   
A |7---------------7---7-----------|5---------------7---7-----------|                              
                   .   .                            .   .   

TEMPO CHANGE to 100bpm 

B |--------------------------------|--------------------------------|    
F#|--------------------------------|--------------------------------|   
D |--------------------------------|--------------------------------|  
A |7----------------------------(Drums Start 100bpm)(Pick slide in)-| 
E |7-------------------------------|--------------------------------| 
A |7-------------------------------|--------------------------------| 

   Solo Rythem 
B |--------------------------------|--------------------------------| 
F#|--------------------------------|--------------------------------| 
D |--------------------------------|--------------------------------| 
A |--------------------------------|--------------------------------| 
E |----5---------4-----4---3---3---|----5---5-----4-----4---3---3---| 
A |0-0---0---0-0---0-0---0---0-----|0-0---0---0-0---0-0---0---0-----|   
   . .   .   . .   . .   .   .      . .   .   . .   . .   .   .        


   Outro 
B |--------------------------------| 
F#|--------------------------------| 
D |7-6-6-6-7-6-6-6-7-6-6-6-7-6-6-6-| 
A |x-x-x-x-x-x-x-x-x-x-x-x-x-x-x-x-| 
E |5-4-4-4-5-4-4-4-5-4-4-4-5-4-4-4-| 
A |--------------------------------| 
  |                                | 
  |                                | 
  |                                | 
B |--------------------------------| 
F#|--------------------------------| 
D |109-9-9-109-9-9-109-9-9-109-9-9-| 
A |x-x-x-x-x-x-x-x-x-x-x-x-x-x-x-x-| 
E |8-7-7-7-8-7-7-7-8-7-7-7-8-7-7-7-| 
A |--------------------------------| 


Intro 
Verse x4? 
Pre-Chorus x4? 
Chorus x2? 
Verse x4? 
Pre-Chorus x4? 
Chorus x2? 
Interlude 
Solo Rythem x? 
Pre-Chorus x4? 
Chorus x2? 
Outro? 



************************************ 

| /   slide up 
| \   slide down 
| h   hammer-on 
| p   pull-off 
| ~   vibrato 
| +   harmonic 
| x   Mute note 
| b   Bend 
| pb  Pre-bend 
| br  Bend release 
| pbr Pre-bend release 
| brb Bend release bend 

************************************ 

roll up this ad to continue

share this page

See Also: