Trazendo a Arca

Na Corte Do Egito(Tabs)

Trazendo a Arca

roll up this ad to continue

	        Na Corte de Egito  


E:---------------------------------------3x - 1║ - parte  ------------- 
B:--10--8--10-----10--11-10--8--10------------------------------------- 
G:-------------7--------------------7---------------------------------- 
D:--------------------------------------------------------------------- 
A:--------------------------------------------------------------------- 
E:--------------------------------------------------------------------- 

E:----------------------------------------------1x - 4║ - parte ------- 
B:---------------11--10--8--10--11--10--8------------ ----------------- 
G:--10--9--7--9----------------------------10--------------------------  
D:--------------------------------------------------------------------- 
A:--------------------------------------------------------------------- 
E:--------------------------------------------------------------------- 

    

E:---------------------------------------3x - 1║ - parte  ------------- 
B:--10--8--10-----10--11-10--8--10------------------------------------- 
G:-------------7--------------------7---------------------------------- 
D:--------------------------------------------------------------------- 
A:--------------------------------------------------------------------- 
E:--------------------------------------------------------------------- 

E:---------------10--9--6-----------------------1x - 4║ - parte ------- 
B:-------------------------10--8--------------------------------------- 
G:--10--9--7--9-------------------10--9--7----------------------------- 
D:--------------------------------------------------------------------- 
A:--------------------------------------------------------------------- 
E:--------------------------------------------------------------------- 

    
       na proxima edito o solo, mas aconselho bastante estudo 

	        

Written by Luiz Arcanjo,deco Rodrigues

See Also: