E-Chords
Trapt

These Walls(Tabs)

Trapt

roll up this ad to continue

Tuning: Standard (EADGBE) 
~ = Hold Note 
 
Guitar 1: Intro/Verse 1 (Guitar 2 doesn't come in until much later.)(Repeat 3x) 
E-7--------------------------------------------------------------------- 
B----------------------------------------------------------------------- 
G-------9-----------9--------------------------------------------------- 
D-----9---9-------9---9------------------------------------------------- 
A---7-------7---7-------7----------------------------------------------- 
E-9-----------7--------------------------------------------------------- 
 
Guitar 1: Chorus (Repeat 4x) 
E---------------------|--After 4th Time Only---------------------------- 
B---------------------|------------------------------------------------- 
G-6-6--2--4-4-4-6-2---|-6-6-6--4-4--2-2-2------------------------------- 
D-6-6--2--4-4-4-6-2---|-6-6-6--4-4--2-2-2------------------------------- 
A-4-4--0--2-2-2-4-0---|-4-4-4--2-2--0-0-0------------------------------- 
E---------------------|------------------------------------------------- 
 
Guitar 1: Verse 2 (Repeat 4x) 
E-7~----------------------7~------------9~------9~---------------------- 
B---7-5-4~--7-9-------------7-5-4~--7/9-----7/9------------------------- 
G---------------8-6-8-6-4----------------------------------------------- 
D----------------------------------------------------------------------- 
A----------------------------------------------------------------------- 
E----------------------------------------------------------------------- 
 
Guitar 1 Plays Chorus Again (without ending) 
 
Guitar 1: Chorus Pt. 2 (Repeat 4x)(After 4x, play the ending from Chorus) 
E----------------------------------------------------------------------- 
B----------------------------------------------------------------------- 
G-6-6--2-2-2------------------------------------------------------------ 
D-6-6--2-2-2--2-2--4-4-4-4---------------------------------------------- 
A-4-4--0-0-0--2-2--4-4-4-4---------------------------------------------- 
E-------------0-0--2-2-2-2---------------------------------------------- 
 
Guitar 2: Chorus Pt. 2 (Repeat 4x) 
E-0-4-0-5-0-5--0-2-0-2-0-2--------------------------------------------- 
B---------------------------------------------------------------------- 
G---------------------------------------------------------------------- 
D---------------------------------------------------------------------- 
A---------------------------------------------------------------------- 
E---------------------------------------------------------------------- 
 
I'm really a bit lost with the bridge...If you can help, then post some corrections plz. 
 
After bridge, play Intro/Verse 1 
After that, play: 
 
Chorus 4x 
Chorus Pt. 2 8x (both guitars) 
 
Guitar 1: Outro Pt. 1 (same as Chorus Pt. 2) 
 
Guitar 2: Outro Pt. 2 
E-7-------------------7-------------------7---------------------------- 
B---7-5-7-9-------------7-5-7-9-7-----------7-5-7-9-------------------- 
G-----------8-6-8-6-4-------------8-6-8-4-----------8-6-8-6-4---------- 
D---------------------------------------------------------------------- 
A---------------------------------------------------------------------- 
E---------------------------------------------------------------------- 
 
E-----------7~--------------------------------------------------------- 
B-------7-9----9-9-7-7-5-5-2~------------------------------------------ 
G---8-9---------------------------------------------------------------- 
D-9-------------------------------------------------------------------- 
A---------------------------------------------------------------------- 
E---------------------------------------------------------------------- 
 
Outro Pt. 3: Chorus Ending, and then play this around 3:52 
E---------------------------------------------------------------------- 
B---------------------------------------------------------------------- 
G-----------9-9-------------------------------------------------------- 
D------9-9-------9-9--------------------------------------------------- 
A-7-7-----------------7~----------------------------------------------- 
E---------------------------------------------------------------------- 
 
share this page

See Also: