E-Chords
Trapt

Living In The Eye Of The Storm(Tabs)

Trapt

roll up this ad to continue

Key: D
D Standard: High:D 
                 A 
                 F 
                 C 
                 G 
                 D 
  
Intro A 
|----------------------------| 
|----------------------------| 
|------------10----------7--8| 
|-----10---------10----------| 
|--------10----------10------| 
|--8-------------------------| 
  
|----------------------| 
|----------------------| 
|-----5-----7--7--7-7-5| 
|-------5--------------| 
|----------------------| 
|--6-------------------| 
  
|-------------------------| 
|-----------6---------3--4| 
|-----5--------5----------| 
|--------5---------5------| 
|-------------------------| 
|--4----------------------| 
  
|----------------------| 
|----------------------| 
|-----5-----8--8--8-8-7| 
|--------5-------------| 
|----------------------| 
|--6-------------------| 
  
Repeat the intro when Chris sings the Chorus right after the intro. 
  
Intro B/Chorus 
|--------------------------------------| 
|--------------------------------------| 
|--8--------7--------5--------7--------|  Let each chords ring 
|--10-------8--------6--------8--------| 
|--10-------8--------6--------8--------| 
|--8--------6--------4--------6--------| 
  
Verse 
|----------|------------------|---------| 
|----------|------------------|------6--| 
|------10--|------8-----7-----|------5--| 
|------10--|---5--5--5-----5--|---5-----| 
|---10-----|------------------|---------| 
|8---------|6-----------------|4--------| 

Pre Chorus 
|------------------------------------------------------------| 
|------------------------------------------------------------| 
|17-17-17-17-17-17-17-17-17-17-15-15-15-15-15-15-15-15-15-15-| 
|17-17-17-17-17-17-17-17-17-17-15-15-15-15-15-15-15-15-15-15-| 
|------------------------------------------------------------| 
|------------------------------------------------------------| 

|------------------------------------------------------------| 
|------------------------------------------------------------| 
|12-12-12-12-12-12-12-12-12-12-15-15-15-15-15-15-15-15-15-15-| 
|13-13-13-13-13-13-13-13-13-13-15-15-15-15-15-15-15-15-15-15-| 
|------------------------------------------------------------| 
|------------------------------------------------------------| 

Chorus 

verse 2 

Pre Chorus 

Chorus 

Bridge A 
|-3--------3--------|      |---------------------------------| 
|-4--------3--------|      |---------------------------------| 
|-5--------5--------|  x2  |-----7-----8-----10-----8--8--7--| 
|-5--------5--------|      |--8-----8-----8------8-----------| 
|-3--------3--------|      |---------------------------------| 
|-------------------|      |---------------------------------| 

Chorus 

The End 
share this page

See Also: