E-Chords
Trapt

Echo(Tabs)

Trapt

roll up this ad to continue

 
Standard Tuning 
 
Main Riff: 
'Close my eyes...' 
e --------------------------------------------------- 
b --------------------------------------------------- 
g --------------------------------------------------- 
d --7--9--7----7--9--4------------------------------- 
a --7--9--5----7--9--4------------------------------- 
E --5--7--5----5--7--2------------------------------- 
 
'...asking why' 
e ------------5-----------------2-------------------- 
b ------------7-----------------2-------------------- 
g ------------7-----------------2-------------------- 
d ------------7--------7--------4-------------------- 
a ------------5--------7--------4-------------------- 
E ------------5--------5--------2-------------------- 
 
with this behind it (keyboard arr. for guitar) 
e --------------------------------------------------- 
b ------9-10-9--------9-10-9------------------------- 
g -11-9--------9----9--------9-11-------------------- 
d ---------------12---------------------------------- 
a --------------------------------------------------- 
E --------------------------------------------------- 
 
e --------------------------------------------------- 
b ------9-10-9-----------10-9--------9-10------------ 
g -11-9--------9-11-9---------9-11-9----------------- 
d --------------------11----------------------------- 
a --------------------------------------------------- 
E --------------------------------------------------- 
 
verse: 
e --------------------------------------------------- 
b ---10------10------9-----9-----9------------------- 
g ------11------11-----9-----9-----9----------------- 
d --------------------------------------------------- 
a -0-------0-------0-----0-----0-----0--------------- 
E --------------------------------------------------- 
 
verse (cont.): 
e --------------------------------------------------- 
b ---9-----9-----7-----7-----7----------------------- 
g -----9-----9-----7-----7-----7--------------------- 
d --------------------------------------------------- 
a -0-----0-----0-----0-----0------------------------- 
E --------------------------------------------------- 
 
pre-chorus (with main riff) 
e --------------------------------------------------- 
b -10-10-10-12-12-12-14-14-14-14-14-14-14-14-14------ 
g -10-10-10-12-12-12-14-14-14-14-14-14-14-14-14------ 
d --------------------------------------------------- 
a --------------------------------------------------- 
E --------------------------------------------------- 
 
lil solo at the end: 
e --------------------------------------------------- 
b -9h10-10h12-9h10-10h12-9h10-10h12-9h10-10h12------- 
g --------------------------------------------------- 
d --------------------------------------------------- 
a --------------------------------------------------- 
E --------------------------------------------------- 
 
 
e --------------------------------------------------- 
b -12/14-12----12------------------------------------ 
g ----------14----14-13-14-13-11-13-11-9-11-9~~------ 
d --------------------------------------------------- 
a --------------------------------------------------- 
E --------------------------------------------------- 
 
share this page

See Also: