E-Chords
Trapt

Bring It(Tabs)

Trapt

roll up this ad to continue

Key: A
Tuned in Drop Db 

Intro 
|------------| 
|------------| 
|------------| The number of times and the timing is easy to figure out. 
|5h6h5h6h5h6h| 
|------------| 
|------------| 

Main Riff/Chorus 
|-------------------------------------------------------------| 
|-------------------------------------------------------------| 
|-------------------------------------------------------------| 
|--------------------------8-8-8--8-8--8h10-10-10---10-10-10--| 
|--------------------------8-8-8--8-8--8h10-10-10---10-10-10--| 
|12/--0--3p0--12/--0--3p0--8-8-8--8-8--8h10-10-10---10-10-10--| 

Verse 
|----------------------------------|---------------------------------| 
|----------------------------------|---------------------------------| 
|----------------------------------|------------------------10-------| Repeat 
|10h12-12-12-12p10-10h12h13p12--0--|10h12-12-12-12p10-10h12---13--1--| both 4 
|-------------------------------0--|------------------------------1--| times 
|-------------------------------0--|------------------------------1--| 

Chorus 

Verse 2 

Bridge A 
|----------------------|---------------------------| 
|----------------------|---------------------------| 
|----------------------|---------------------------| x2 
|0-0-0--0-0---0--0--1--|0-0-0--0-0--1-1-1-1--1--3--| 
|0-0-0--0-0---0--0--1--|0-0-0--0-0--1-1-1-1--1--3--| 
|0-0-0--0-0---0--0--1--|0-0-0--0-0--1-1-1-1--1--3--| 
PM................      .......... 

|--------| 
|--------| 
|--------| Play that for the last note of Bridge A. 
|0-------| 
|0-------| 
|0-------| 

Bridge B 
|----------------------------------------| 
|----------------------------------------| 
|----------------------------------------| 
|----------------------------------------| 
|----------------------------------------| 
|10h12-12-12-12-12--10h12-12-12-12-12-0-0| 
PM     ...........        ........... 

|------------------------------------------| 
|------------------------------------------| 
|------------------------------------------| 
|------------------------------------------| 
|------------------------------------------| 
|10h12-12-12-12-12--10h12-12-12-12-12-13-13| 
PM     ...........        ...........            Repeat entire thing twice 

|----------------------------------------| 
|----------------------------------------| 
|----------------------------------------| 
|----------------------------------------| 
|----------------------------------------| 
|10h12-12-12-12-12--10h12-12-12-12-12-0-0| 
PM     ...........        ........... 

|------------------------------| 
|------------------------------| 
|------------------------------| 
|------------------------------| 
|------------------------------| 
|10h12-12-12-12-12--10-12-13-15| 
PM     ........... 

Chorus 

Bridge B 

End on 
|-------| 
|-------| 
|-------| 
|1-1-1-0| 
|1-1-1-0| 
|1-1-1-0| 
|1-1-1--| 
share this page

See Also: