E-Chords
Trademark

Only Love (solo)(Tabs)

Trademark

roll up this ad to continue



e|-----------------------12-14-14b16r14-12-12-12h14p12------------------------------| 
B|------14-16-14~--12-14-------------------------------14-12------------------------| 
G|--/13-----------------------------------------------------/11-9-11b13r11-9-11-----| 
D|------------------------------------------------------------------------------9~--| 
A|----------------------------------------------------------------------------------| 
E|----------------------------------------------------------------------------------| 


e|-------------------12-14-16--17--19--19b21r19-------------------------------------| 
B|----------------14----------------------------17-17~------------------------------| 
G|------9----9s13-------------------------------------------------------------------| 
D|--/11---11------------------------------------------------------------------------| 
A|----------------------------------------------------------------------------------| 
E|----------------------------------------------------------------------------------| 


e|--14h15p14----14~------14-16-17-17-h19p17-16-17-16--------------------------------| 
B|-----------17-------17-----------------------------19-19b21r19-17~----------------| 
G|----------------------------------------------------------------------------------| 
D|----------------------------------------------------------------------------------| 
A|----------------------------------------------------------------------------------| 
E|----------------------------------------------------------------------------------| 
share this page

See Also: