E-Chords
Touché Amoré

Art Official(Tabs)

Touché Amoré

roll up this ad to continue

 

 d#|----------------------------------------| 
 A#|----------------------------------------|  
 F#|----------------------------------------|  
 C#|------0---7--8-----------0--7--8--5-----|  x2 
 G#|------0---7--8-----------0--7--8--5-----|  
 C#|------0---7--8-----------0--7--8--5-----|  

 d#|---------------------------------------------------| 
 A#|--11-11-11-11-11-11-11-11-11-10-10-10-10-10-10-----|  
 F#|--14-14-14-14-14-14-14-14-14-14-14-14-14-14-14-----|  
 C#|---------------------------------------------------|  
 G#|---------------------------------------------------|  
 C#|---------------------------------------------------|  

 d#|------------------------------| 
 A#|------------------------------|  
 F#|------------------------------|  
 C#|---0-0-0-8-8-8--3--3--3--3----|  x2 
 G#|---0-0-0-8-8-8--3--3--3--3----|  
 C#|---0-0-0-8-8-8--3--3--3--3----|  

 d#|----------------------------------------| 
 A#|----------------------------------------|  
 F#|----------------------------------------|  
 C#|------0---7--8-----------0--7--8--5-----|  
 G#|------0---7--8-----------0--7--8--5-----|  
 C#|------0---7--8-----------0--7--8--5-----|  

 d#|---------------------------------------------------| 
 A#|---------------------------------------------------|  
 F#|---------------------------------------------------|  
 C#|--0-0-0-0-7-7-7-7-8-8-8-8-8-8-8-8-8-8-8-8-8-8-8-8--|  
 G#|--0-0-0-0-7-7-7-7-8-8-8-8-8-8-8-8-8-8-8-8-8-8-8-8--|  
 C#|--0-0-0-0-7-7-7-7-8-8-8-8-8-8-8-8-8-8-8-8-8-8-8-8--|  

 d#|------------------------------------------------------| 
 A#|------------------------------------------------------|  
 F#|------------------------------------------------------|  
 C#|--0-0-0-7-7-7-8-8-8-5-5-5-5-5-5-5-5-5-5-5-5-5-5-5-5---|  
 G#|--0-0-0-7-7-7-8-8-8-5-5-5-5-5-5-5-5-5-5-5-5-5-5-5-5---|  
 C#|--0-0-0-7-7-7-8-8-8-5-5-5-5-5-5-5-5-5-5-5-5-5-5-5-5---|  

 d#|------------------------------------------| 
 A#|------------------------------------------|  
 F#|-15p14-141414--15p14-14141414-1212121212--|  
 C#|-12----121212--12----12121212-1010101010--|  x2 
 G#|------------------------------------------|  
 C#|------------------------------------------|  

 d#|-------------------------| 
 A#|-------------------------|  
 F#|-------------------------|  
 C#|-0---3---3----1----------|  
 G#|-0---3---3----1-HOLD-----|x4  
 C#|-0---3---3----1----------|  
share this page

See Also: