E-Chords
Toru Minegishi

Midnas Desperate Hour(Tabs)

Toru Minegishi


   1   2   3   4   5   6     1   2   3   4   5   6     
E|-----------0-----------0--|-----------0-3-0----------| 
B|---------1-----------1----|---------1-------1--------| 
G|-------2-----------2------|-------2-----------2------| 
D|-0-2-3-------0-2-3--------|-0-2-3---------------3-2--| 
A|--------------------------|--------------------------| 
E|--------------------------|--------------------------| 


E|:-------------------------|--------------------------|---------------17------17-| 
B|:--------6---5------------|--------------------------|-------------15--17--15---| 
G|:-------------------5-----|-4------------------------|--------------------------| 
D|:7------------------------|---------7-5-9------------|--------------------------| 
A|:-------------------------|--------------------------|--------------------------| 
E|:-------------------------|--------------------------|--------------------------| 
 |                          |                          |                          | 
E|:----------0-----------0--|-----------0-----------0--|-----------0-----------0--| 
B|:--------1-----------1----|---------1-----------1----|---------0-----------0----| 
G|:------2-----------2------|-------2-----------2------|-------2-----------2------| 
D|:0-2-3-------0-2-3--------|-0-2-3-------0-2-3--------|-0-2-3-------0-2-3--------| 
A|:-------------------------|--------------------------|--------------------------| 
E|:-------------------------|--------------------------|--------------------------| 


E|--------------------------|--------------------------|--------------------------| 
B|-17-----------------------|---------6---5------------|---------5-6-8------------| 
G|--------------------------|---------------------5----|-7------------------------| 
D|--------------------------|-7------------------------|--------------------------| 
A|--------------------------|--------------------------|--------------------------| 
E|--------------------------|--------------------------|--------------------------| 
 |                          |                          |                          | 
E|-----------0-----------0--|-----------0-----------0--|-----------0-----------0--| 
B|---------0-----------0----|---------1-----------1----|---------1-----------1----| 
G|-------2-----------2------|-------2-----------2------|-------2-----------2------| 
D|-0-2-3-------0-2-3--------|-0-2-3-------0-2-3--------|-0-2-3-------0-2-3--------| 
A|--------------------------|--------------------------|--------------------------| 
E|--------------------------|--------------------------|--------------------------| 

                            _______________________________________________________ 
                            1 
E|-------------------20-----|--------------------------|--------------------------| 
B|-----------------18--2018-|-17-----------------------|-10-----------------------| 
G|--------------------------|--------------------------|--------------------------| 
D|--------------------------|--------------------------|--------------------------| 
A|--------------------------|--------------------------|--------------------------| 
E|--------------------------|--------------------------|--------------------------| 
 |                          |                          |                          | 
E|-----------0-----------0--|-----------0-----------0--|-----------0-----------0--| 
B|---------0-----------0----|---------0-----------0----|---------1-----------1----| 
G|-------2-----------2------|-------2-----------2------|-------2-----------2------| 
D|-0-2-3-------0-2-3--------|-0-2-3-------0-2-3--------|-0-2-3-------0-2-3--------| 
A|--------------------------|--------------------------|--------------------------| 
E|--------------------------|--------------------------|--------------------------| 

  ________________ 
E|--------------------------|--------------------------|-------------------------:| 
B|-------11----10-----------|-8-------------------6-8--|-5-----------------------:| 
G|-8-----------------10-----|--------------------------|-------------------------:| 
D|--------------------------|--------------------------|-------------------------:| 
A|--------------------------|--------------------------|-------------------------:| 
E|--------------------------|--------------------------|-------------------------:| 
 |                          |                          |                          | 
E|--------------------------|--------------------------|-------------------------:| 
B|---------3-6---------3-6--|-----------1-----------1--|-----------2-----------2-:| 
G|-------3-----------3------|-------0-1---------0-1----|-------0-2---------0-2---:| 
D|---3-5---------3-5--------|-----1-----------1--------|-----2-----------2-------:| 
A|-6-----------6------------|---3-----------3----------|---4-----------4---------:| 
E|--------------------------|-4-----------4------------|-5-----------5-----------:|  
                                                          (go back!, and then before  
                                                       the 1, start at the 2 instead) 
  ____________________________ 
  2 
E|--------------------------|---------------------12---|-10-----------------------| 
B|-17------------------1012-|-13-----------------------|-------8------------------| 
G|--------------------------|--------------------------|--------------------------| 
D|--------------------------|--------------------------|--------------------------| 
A|--------------------------|--------------------------|--------------------------| 
E|--------------------------|--------------------------|--------------------------| 
 |                          |                          |                          | 
E|-----------0-----------0--|-----------0-----------0--|--------------------------| 
B|---------0-----------0----|---------1-----------1----|---------0-3---------0-3--| 
G|-------2-----------2------|-------2-----------2------|-------0-----------0------| 
D|-0-2-3-------0-2-3--------|---2-3---------2-3--------|---0-2---------0-2--------| 
A|--------------------------|-0-----------0------------|--------------------------| 
E|--------------------------|--------------------------|-3-----------3------------| 


E|---------------------8----|-7------------------------|--------------------------| 
B|-6------------------------|-------5------------------|-------3-------3----------| 
G|--------------------------|--------------------------|-----0---2---0---2--------| 
D|--------------------------|--------------------------|--------------------------| 
A|--------------------------|--------------------------|--------------------------| 
E|--------------------------|--------------------------|--------------------------| 
 |                          |                          |                          | 
E|--------------------------|--------------------------|--------------------------| 
B|-----------1-----------1--|-----------0-----------0--|-----------1-----------1--| 
G|---------2-----------2----|---------0-----------0----|---------2-----------2----| 
D|-----0-3---------0-3------|-------2-----------2------|-----0-3---------0-3------| 
A|---3-----------3----------|---2-3---------2-3--------|---3-----------3----------| 
E|-1-----------1------------|-0-----------0------------|-1-----------1------------| 


E|-------10-----------------|--------------------------|-------3------------------| 
B|-----10--10---------------|-------5-------5----------|---------3----------------| 
G|--------------------------|-----2---4---2---4--------|-----4-----5-4------------| 
D|--------------------------|--------------------------|--------------------------| 
A|--------------------------|--------------------------|--------------------------| 
E|--------------------------|--------------------------|--------------------------| 
 |                          |                          |                          | 
E|--------------------------|--------------------------|--------------------------| 
B|--------------------------|---------0-3---------0-3--|--------------------------| 
G|---------2-5---------2-5--|-------0-----------0------|---------4-7---------4-7--| 
D|-------4-----------4------|-----0-----------0--------|-------6-----------6------| 
A|---3-5---------3-5--------|---2-----------2----------|---5-7---------5-7--------| 
E|-2-----------2------------|-3-----------3------------|-4-----------4------------| 


E|--------------------------|-------------------------:|| 
B|-----------0-----------0--|-----------0-3-0---------:|| 
G|---------0-----------0----|---------0-------0-------:|| 
D|-------2-----------2------|-------2-----------2-----:|| 
A|-0-2-3-------0-2-3--------|-0-2-3---------------3-2-:|| 
E|--------------------------|-------------------------:|| 



Rhythm Guitar Part: 

   1   2   3   4   5   6     1   2   3   4   5   6     
E|-----------0-----------0--|-----------0-3-0----------| 
B|---------1-----------1----|---------1-------1--------| 
G|-------2-----------2------|-------2-----------2------| 
D|-0-2-3-------0-2-3--------|-0-2-3---------------3-2--| 
A|--------------------------|--------------------------| 
E|--------------------------|--------------------------| 

E|:----------0-----------0--|-----------0-----------0--|-----------0-----------0--| 
B|:--------1-----------1----|---------1-----------1----|---------0-----------0----| 
G|:------2-----------2------|-------2-----------2------|-------2-----------2------| 
D|:0-2-3-------0-2-3--------|-0-2-3-------0-2-3--------|-0-2-3-------0-2-3--------| 
A|:-------------------------|--------------------------|--------------------------| 
E|:-------------------------|--------------------------|--------------------------| 

E|-----------0-----------0--|-----------0-----------0--|-----------0-----------0--| 
B|---------0-----------0----|---------1-----------1----|---------1-----------1----| 
G|-------2-----------2------|-------2-----------2------|-------2-----------2------| 
D|-0-2-3-------0-2-3--------|-0-2-3-------0-2-3--------|-0-2-3-------0-2-3--------| 
A|--------------------------|--------------------------|--------------------------| 
E|--------------------------|--------------------------|--------------------------| 
                            _______________________________________________________ 
                            1 
E|-----------0-----------0--|-----------0-----------0--|-----------0-----------0--| 
B|---------0-----------0----|---------0-----------0----|---------1-----------1----| 
G|-------2-----------2------|-------2-----------2------|-------2-----------2------| 
D|-0-2-3-------0-2-3--------|-0-2-3-------0-2-3--------|-0-2-3-------0-2-3--------| 
A|--------------------------|--------------------------|--------------------------| 
E|--------------------------|--------------------------|--------------------------| 

E|--------------------------|--------------------------|-------------------------:| 
B|---------3-6---------3-6--|-----------1-----------1--|-----------2-----------2-:| 
G|-------3-----------3------|-------0-1---------0-1----|-------0-2---------0-2---:| 
D|---3-5---------3-5--------|-----1-----------1--------|-----2-----------2-------:| 
A|-6-----------6------------|---3-----------3----------|---4-----------4---------:| 
E|--------------------------|-4-----------4------------|-5-----------5-----------:| 
  ____________________________ 
  2 
E|-----------0-----------0--|-----------0-----------0--|--------------------------| 
B|---------0-----------0----|---------1-----------1----|---------0-3---------0-3--| 
G|-------2-----------2------|-------2-----------2------|-------0-----------0------| 
D|-0-2-3-------0-2-3--------|---2-3---------2-3--------|---0-2---------0-2--------| 
A|--------------------------|-0-----------0------------|--------------------------| 
E|--------------------------|--------------------------|-3-----------3------------| 

E|--------------------------|--------------------------|--------------------------| 
B|-----------1-----------1--|-----------0-----------0--|-----------1-----------1--| 
G|---------2-----------2----|---------0-----------0----|---------2-----------2----| 
D|-----0-3---------0-3------|-------2-----------2------|-----0-3---------0-3------| 
A|---3-----------3----------|---2-3---------2-3--------|---3-----------3----------| 
E|-1-----------1------------|-0-----------0------------|-1-----------1------------| 

E|--------------------------|--------------------------|--------------------------| 
B|--------------------------|---------0-3---------0-3--|--------------------------| 
G|---------2-5---------2-5--|-------0-----------0------|---------4-7---------4-7--| 
D|-------4-----------4------|-----0-----------0--------|-------6-----------6------| 
A|---3-5---------3-5--------|---2-----------2----------|---5-7---------5-7--------| 
E|-2-----------2------------|-3-----------3------------|-4-----------4------------| 

E|--------------------------|-------------------------:|| 
B|-----------0-----------0--|-----------0-3-0---------:|| 
G|---------0-----------0----|---------0-------0-------:|| 
D|-------2-----------2------|-------2-----------2-----:|| 
A|-0-2-3-------0-2-3--------|-0-2-3---------------3-2-:|| 
E|--------------------------|-------------------------:|| 


Adaptation of Beginning and Closing D-9, D-11, D-9#13, A-9 and A-11 Arpeggios (with  
fingering too, they'll sound the same, and they're easy to piece together up top): 

   D-9                        D-11                       D-9#13 
E|-----------0-----------0--|-----------0-3-0----------|-----------0-----------0--| 
B|--------------------------|--------------------------|---------0-----------0----| 
G|-------2-5---------2-5----|-------2-5-------5-2------|-------2-----------2------| 
D|---2-3---------2-3--------|---2-3---------------3-2--|---2-3---------2-3--------| 
A|-5-----------5------------|-5------------------------|-5-----------5------------| 
E|--------------------------|--------------------------|--------------------------| 
   3 1 2 1 4 - 3 1 2 1 4 -    3 1 2 1 4 - 1 - 4 1 2 1    3 1 2 1 - - 3 1 2 1 - - 

   A-9                        A-11 
E|--------------------------|-------------------------:| 
B|-----------0-----------0--|-----------0-3-0---------:| 
G|---------0-----------0----|---------0-------0-------:| 
D|-------2-----------2------|-------2-----------2-----:| 
A|---2-3---------2-3--------|---2-3---------------3-2-:| 
E|-5-----------5------------|-5-----------------------:| 
   4 1 2 1 - - 4 1 2 1 - -    4 1 2 1 - - 2 - - 1 2 1 


Legend: 
w = whole note                                  #h# = hammer-on 
h = half note                                   #p# - pull-up 
q = quarter note                                / = slide up/down (dpnd. on #) 
e = eighth note                                 // = switch from SP.-as written 
s = sixteenth note                              :| = repeat 
. (eg: e.) = dotted (eighth) note (possible twice dotted notes 
1 + 2 + 3 + 4 + = beat count                    (e.g.) s/h = tied notes 
x = strum/pluck w/out any frets pressed         #~ = tremolo 

roll up this ad to continue

share this page

See Also: