E-Chords
Tony Skeggs

All Along The Watchtower(Tabs)

Tony Skeggs

Tuning:Standard 


           Main part played over and over through verses 
e|------------0-----------0--------------------------------------------------| 
B|--------0h1-----0---0h1----------------------------------------------------| 
G|------2--------------------------------------------------------------------| 
D|----2----------------------------------------------------------------------| 
A|--0------------------------------------------------------------------------| 
E|--------------3---1--------------------------------------------------------| 

          Chorus Lead Guitar 
e|-7--5----------------------------------------------------------------------| 
B|-------5--8--6--5----------------------------------------------------------| 
G|-------------------4-4-7--5------------------------------------------------| 
D|----------------------------7-7--------------------------------------------| 
A|------------------------------7--------------------------------------------| 
E|------------------------------5--------------------------------------------| 
          Chorus Rhytm Guitar 
e|---0-----0-----0---3-----3----3---1-----1----------------0-----------------| 
B|-----1-----1---------0-----0--------1-----1----0-----0-1-------------------| 
G|-------2-----2---------0-----0--------2------------------------------------| 
D|---------------------------------------------------------------------------| 
A|-0-------------------------------------------------------------------------| 
E|-----------------3--------------1-----------3-----1------------------------| 


************************************ 

| /   slide up 
| \   slide down 
| h   hammer-on 
| p   pull-off 
| ~   vibrato 
| +   harmonic 
| x   Mute note 
| b   Bend 
| pb  Pre-bend 
| br  Bend release 
| pbr Pre-bend release 
| brb Bend release bend 

************************************ 

roll up this ad to continue

share this page

See Also: