E-Chords
Tommy Mcclennan

Whiskey Head Woman(Tabs)

Tommy Mcclennan



E|------------3---|---6/7--6/7--6/7---|---3p1-------------------| 
B|------------0---|-------------------|--------3p1--------------| 
G|---------0--0---|-------------------|-------------3b--0-------|  
D|---0--0-----0---|-------------------|--------------------0----| 
A|---2--2-----2---|-------------------|--------------------2----| 
E|---3--3---------|---6/7--6/7--6/7---|-----3--------------3----| 


|------6/7--6/7---|---3----------------------|-------------1--1------| 
|-----------------|------0--3--1-------------|-------0--3--0--0------| 
|---0-------------|------0--0--0--3B--0------|---3b--0--0------------|  
|---0-------------|---------------0------0---|-------------------0---| 
|---2-------------|----------------------2---|-------------------2---| 
|------6/7--------|---3------------------3---|---3---3-----3-----3---| 


|-------------------|----------------------|-------------------------------------------| 
|---------------1---|-------1----------0---|------1---------1------1-------------------| 
|------0---3b-------|---3b-----3b--3b--0---|------0-----3b-----3b----3b--3b--0-----0---|  
|------2------------|----------------------|------2-----------------------------2------| 
|------3----3-------|----------------------|---------3---------------------------------| 
|---3---------------|----------------------|---3---------------------------------------| 


|---3p1---3-----3------|-----------------|----------------------------------| 
|---------------0------|---0-------------|---2/3--2/3--2/3--2/3--2/3--2/3---| 
|---------------0------|---0-------------|----------------------------------|  
|------------0-----0---|---0--------0----|-----0----0----0----0----0----0---| 
|------------2-----2---|-------3h4--0----|----------------------------------| 
|---3--------3-----3---|------------2----|----------------------------------| 


|---3--3--3---------------------------|------------0--1----------| 
|---0--0--0--0--3--0--3p1-------------|---0-----3-----0--3-------| 
|---0--0--0--0--0--0-------3b--0------|---0-----------0--0--3b---|  
|--------------------------0---0------|---0----------------------| 
|-------------------------------------|------2-------------------| 
|------------3-----3--------------3---|------3--------3-----3----| 


|----------| 
|----------| 
|---0------|  
|---0------| 
|----------| 
|------3---| 

roll up this ad to continue

share this page

See Also: