E-Chords
Tommy Mcclennan

Roll Me Baby(Tabs)

Tommy Mcclennan


th fret 


Intro: 

E|---------3--3--3--3--------------3--3--1-----3--3--------------------|  
B|------------0-----0--3-----------0--0--0-----0--0---1-----1--3-------|  
G|------------0-----0-----3b-0--------0--0-----0--0---------0-----3b---|  
D|------0-----0-----------------------0-----------0------X--2----------|  
A|------2-----2-----------------------2-----2-----2------3--3----------|  
E|---3--3-----3-----------------3-----3-----3-----3--------------------|  


|-----------------------------------------------3--3-----3--3--3------|  
|------1-----1--3-------------------------------0--0-----0--0--0------|  
|---0--------0-----3b--0--0--------------3b--0--0--0-----0--0--0------|  
|---2-----X--2---------2-----------0--X---------0-----------0---------|  
|---3-----3--3---------3--------2---------------2-----2-----2-----2---|  
|----------------------------3------------------3-----3-----3---------|  


|--------3--3--3--1-----1--3--1-----------------------1--------------|  
|-----------0--------3b----------3p1-----------1---3-----3p1---------|  
|-----------0------------------------3b-4--0------------------3b-0---|  
|---0-------0--------------------------------------------------------|  
|-----------2--------------------------------------------------------|  
|-----------3--------------------------------------------------------|  


|---3--3---3---------|  
|------0---0---------|  
|------0---0-----0---|  
|------0---------0---|  
|------2------2--2---|  
|---3--3------3--3---|  


Verse: 

|---3------3------3--3-----------------------------------------------|  
|---0------0---------0--3-------------------------/3--/3-/3----------|  
|---0------0---------0-----0------0---------0----------------3b-0----|  
|---0------0---------0-----2------2---------2------------------------|  
|---2------2---------2-----3------3--3------3------------------------|  
|---3------3---------3-------------------------3---------------------|  


|----------3--3--3-----3--3------------------------------------------|  
|-------------0--0-----0--0----------2/3-2/3--2/3-2/3--2/3-3--0--1---|  
|-------O-----0--0-----0--0--------------------------------0---------|  
|---h2--------0-----0-----0------0---0---0----0---0----0---2---------|  
|-------------2-----2-----2---2----------------------------3-----3---|  
|----------3--3-----3-----3------------------------------------------|  


|---------------------------------1-------------3--3--3-----3--3---|  
|---1--1--1--3--1-----------1--3-----3p1-----------0--0-----0--0---|  
|------------------3b-0-------------------3b-0-----0--0-----0--0---|  
|------------------------0-------------------------0-----0-----0---|  
|------3-----3-----------2-------------------------2-----2-----2---|  
|------------------------3----------------------3--3-----3-----3---| 

roll up this ad to continue

share this page

See Also: