E-Chords
Tommy Mcclennan

Bottle It Up And Go(Tabs)

Tommy Mcclennan

BOTTLE IT UP AND GO / TOMMY McCLENNAN 


Intro: 

E|------------0-----0-----0-1h3--3--0-----0-1h3--3--0-----0--1h3--3--2--3--2--3---|  
B|------------1-----1--4b-----------1--4b-----------1--4b-------------------------|  
G|------------0-----0---------------0---------------0-----------------------------|  
D|------0-----2-----2---------------2---------------2-----------------------------|  
A|---------3-----3------------------3---------------3-----------------------------|  
E|---3b---------------------------------------------------------------------------|  


|---2-----0--1--------------------------------------------------0---------|  
|------4b-------4b-4b-4b----1--0--1--1--x-1--1------------------1---------|  
|---------------------------0-----------x-----------------------0---------|  
|---------------------------------3b-3b---3b-3b--3b-2--1--2-----2-----0---|  
|------------------------------------------------------------3--3-----2---|  
|------------------------------------------------------------------3--3---|  


|----------0--------3--3-3---8--3--0-----0------------0----------------0-0-----0---|  
|----------1--------0--0-0------------4b----1------1--1----------------1-1-----1---|  
|----------0--------0--0-0---------------------3b-----0----------------0-0-----0---|  
|----------2-----0--0--0-0----------------------------2----------------2-2-----2---|  
|---/2s3~--3-----2------------------------------------3----------2--3--3-3--3--3---|  
|-------------3--3---------------------------------------3b-3-3--------------------|  

1st Verse: 

|--------0--1h3--3--0-------0--1h3--3--0-------0--1h3--3--2--3--2--3--2------0---|  
|---4-4b------------1--4-4b------------1--4-4b---------------------------4b------|  
|-------------------0------------------0-----------------------------------------|  
|-------------------2------------------2-----------------------------------------|  
|-------------------3------------------3-----------------------------------------|  
|--------------------------------------------------------------------------------|  


|------0--------------------0-----0-----0---------0----0----0-0-0-----3-----3-3---|  
|---4b----1--------------4b----4b----4b----1------1----1----1-1-1-----0-----0-0---|  
|---------0--0-----0-----------------------0------0---------0-0-0-----0-----0-0---|  
|------------2-----2------------------------------2---------2-2-2--0--0--0--0-0---|  
|------------3--3--3--3---------------------------3------3--3-3-3--2-----2--------|  
|----------------------------------------------------3-------------3-----3--------|  



|---8--3--0-----0------------0----------------0-0-----0---|  
|------------4b----1------1--1----------------1-1-----1---|  
|---------------------3b-----0----------------0-0-----0---|  
|----------------------------2----------------2-2-----2---|  
|----------------------------3----------2--3--3-3--3--3---|  
|-------------------------------3b-3-3--------------------|  



Yes, yas 

Got to bottle it up an go 
Got to bottle it up an go 
Now, 'em high-power women 
Yeah 

Now, she may be old 
Ninety year 
She ain't too old 
For the shift them gears  

She gots  
'Got to do what, tell me 'gain?' 
'Got to bottle it up and go' 
Now, them high power women 
Yeah! 

Now, I told my girl 
Week 'fore last 
The gate she jus' came in 
Just a little too fast 

She had to bottle it up an go 
She had to bottle it up an go'd 
An them high-power women 
Yes, yeah 

Now, the nigger and the white man 
Playin', set 'em up 
Nigger beat the white man 
Was scared to pick it up 

'He had the bottle up and do what?' 
Had to bottle it up and go 
And them high-power women 
Yeah 

Now, look-a-here, baby 
You stay last night? 
Ain't none a yo' business 
You don't do me right 

'You got t' 
'Gotta do what? 
Tell me again, I don't understand?' 
I've got the bottle up and go'd 
I ain't gon' bother with 'em 
Now, them high-power women 
Yeah 

Now, nickel is a nickel 
A dime is a dime 
I don' need no girl 
If she want wine 

She has to 
Had do what? 
Had to bottle up and go 
And them high-power women 
Yeah 

Now, my mama killed a chicken 
She thought it was a duck 
She put him on the table 
With the legs stickin' up 

He had-a  
Had to do what? 
He had the bottle it up and go'd 
An them high-powered women 
Sho' got the bottle up and gone 

'Yeah, play it man-a 

Be-da, bee, bop, bop, bop 
Bo, de-dum, be-dum, bop, bop 
Bo, bom, bom, bom, bom 
Bee-da, bee-um, bop-um, bop-um, bop 
Bo, bop-um, bop-um, bop-bop, be-ba 
T-dee-da, t-dee-da 
T-da-da-da 

Yeah! 

Uh-huh! 

Got the bottle up and go 
Got the bottle up and go 
Now, you high-power women 
Sho' got to bottle 'em up and go. 

roll up this ad to continue

share this page

See Also: