E-Chords
Toadies

I Come From the Water(Tabs)

Toadies

roll up this ad to continue

All guitars standard tuning. 

      b =3D Bend up 

      r =3D Release 

      \ =3D Slide down (glissando) 

      x =3D Muted, struck string 

      ^ =3D Accent (strike with emphasis) 

      P.M. =3D Palm Mute 

=20 

      Riff 1            Riff 2 

E-----|-------------|-------------------------| 

B-----|-------------|-------------------------| 

G-----|-------------|-------------------------| 

D-----|-------------|-------------------------| 

A-----|-------------|-2-2-5-5-7-7-8-8-7-7-5-5-| 

E-15\-|-0-3-5-6-5-3-|-0-0-3-3-5-5-6-6-5-5-3-3-| 

                     P.M.....................} 

=20 

  Chorus      ^           ^           ^ 

E---------------------------------------------x-------x---------| 

B---------------------------------------------x-------x---------| 

G---------------------------------------------x-------x---------| 

D-2-------5---2-------5---2-------5---2-------x-------x---------| 

A-2-------5---2-------5---2-------5---2-------x-------x---------| 

E-0-------3---0-------3---0-------3---0-------x-------x------15\| 

=20 

 Bridge Riff 1 

E---------------------------------------------------------------- 

B---------------------------------------------------------------- 

G---------------------------------------------------------------- 

D---------------------------------------------------------------- 

A-4-4-4-4-4-4-4-4-4-4-4-4-5-5-5-5-5-5-5-5-5-5-5-5-9-9-9-9-9-9-9-9 

E-2-0-2-0-2-0-2-0-2-0-2-0-3-0-3-0-3-0-3-0-3-0-3-0-7-0-7-0-7-0-7-0 

  P.M. (first two times only).................................... 

=20 

E-------------------------------|-------------------------------- 

B-------------------------------|-------------------------------- 

G-------------------------------|-------------------------------- 

D-------------------------------|-------------------------------- 

A-9-9-9-9-9-7-7-7-7-7-7-7-7-7-7-|-------------------------------- 

E-7-0-7-0-5-0-5-0-5-0-5-0-5-0-5-|-------------------------------- 

 ..............................} 

 Bridge Riff 2 

E---------------------------------------------------------------- 

B---------------------------------------------------------------- 

G---------------------------------------------------------------- 

D-----------------------------------------------------7-7----7-7- 

A-4-4-4-4-4-4-4-4-4-4-4-4-5-5-5-5-5-5-5-5-5-5-5-5-----7-7----7-7- 

E-2-0-2-0-2-0-2-0-2-0-2-0-3-0-3-0-3-0-3-0-3-0-3-0-5-------5------ 

=20 

=20 

E--------------------------------------------------| 

B--------------------------------------------------| 

G--------------------------------------------------| 

D-----9-9-----9-9-----9-9-----9-9-9999999999999999-| 

A-----9-9-----9-9-----9-9-----9-9-9999999999999999-| 

E-7-------7-------7-------7-------7777777777777777-| 

=20 

=20 

 Solo Part 1                  Solo Part 2 

E--------------------------|------------------------------------- 

B--------------------------|------12------12------12----12-15--15 

G-12-9-7-4-2-0---0-2-2b3r2-|-14b16---14b16---14b16-14b16--------- 

D--------------2-----------|------------------------------------- 

A--------------------------|------------------------------------- 

E--------------------------|------------------------------------- 

=20 

E---------------------------------12----------------------------- 

B------12------12------12------12---------------12------12------- 

G-14b16---14b16---14b16---14b16------------14b16---14b16---14b16- 

D---------------------------------------------------------------- 

A---------------------------------------------------------------- 

E---------------------------------------------------------------- 

=20 

E----------------------12-----------|---------------------------- 

B-12------12-15b17-r15-15b17--------|---------------------------- 

G----14b16--------------------------|---------------------------- 

D-----------------------------------|---------------------------- 

A-----------------------------------|---------------------------- 

E-----------------------------------|---------------------------- 

=20 

  End Chorus  ^           ^           ^ 

E---------------------------------------------------------------| 

B---------------------------------------------------------------| 

G---------------------------------------------------------------| 

D-2-------5---2-------5---2-------5---2-----------------------2-| 

A-2-------5---2-------5---2-------5---2-----------------------2-| 

E-0-------3---0-------3---0-------3---0---3---5---6---5---3---0-| 

=20 

Song Structure: 

=20 

Riff 1 X 5 

Riff 2 X 4 

Riff 1 X 4 

Chorus 

Riff 1 

Riff 2 X 4 

Riff 1 X 4 

Chorus 

Bridge Riff 1 X 4 (palm mute first two times only) 

Bridge Riff 2 

Riff 1 

Solo Part 1 X 2 (a second guitar plays riff 1 during entire solo) 

Solo Part 2 

End Chorus 

share this page

See Also: