E-Chords
To Paint The Sky

The Ghost(Tabs)

To Paint The Sky

roll up this ad to continue

E|------0-------0---------10----------10---------8--------8----------------------| 
B|----6---6---6---6----10----10----10----10----8---8----8---8-----3-------3-5----| 
G|--7-------7-------12----------12----------10-------10---------2---2/3-3-----6--| 
D|------------------------------------------------------------3------------------| 
A|-------------------------------------------------------------------------------| 
D|-------------------------------------------------------------------------------| x2 No Saturation 

E|----------------------------------------------------------------------------------| 
B|----------------------------------------------------------------------------------| 
G|----------------------------------------------------------------------------------| 
D|---------------3-3----3-3---------------------------------------------------------| 
A|-0-0----0-0----1-1----1-1----5-5----5-5------5-555-5-4-4444-0---------------------| 
D|-0-0----0-0------------------5-5----5-5------5-555-5-4-4444-0---------------------| x3 
   * *    * *    * *    * *    * *    * * 

E|-------------------------------------------------------------------------------------------| 
B|-------------------------------------------------------------------------------------------| 
G|-------------------------------------------------------------------------------------------| 
D|-------3-3-3-3-3-3-3-3-3-3-3-3-3-3-3-5-5-5-5-5-5-5-5-5-5-5-5-5-5-5-------------------------| 
A|-0-----1-1-1-1-1-1-1-1-1-1-1-1-1-1-1-3-3-3-3-3-3-3-3-3-3-3-3-3-3-3--0-0---0-0---0-0---0-0--| 
D|-0------------------------------------------------------------------0-0---0-0---0-0---0-0--| x2 
   * 

E|----------------------------------------------------------------------------------| 
B|----------------------------------------------------------------------------------| 
G|----------------------------------------------------------------------------------| 
D|---------------3-3----3-3---------------------------------------------------------| 
A|-0-0----0-0----1-1----1-1----5-5----5-5------5-555-5-4-4444-0---------------------| 
D|-0-0----0-0------------------5-5----5-5------5-555-5-4-4444-0---------------------| x2 
   * *    * *    * *    * *    * *    * * 

E|---------------------------------------------------------------------------------------------| 
B|---------------------------------------------------------------------------------------------| 
G|---------------------------------------------------------------------------------------------| 
D|------3-3-3-3-3-3-3-3-3-3-3-3-3-3-3-5-5-5-5-5-5-5-5-5-5-5-5-5-5-5----------------------------| 
A|------1-1-1-1-1-1-1-1-1-1-1-1-1-1-1-3-3-3-3-3-3-3-3-3-3-3-3-3-3-3--0-0---0-0---0-0---0-0---0-| 
D|-------------------------------------------------------------------0-0---0-0---0-0---0-0---0-| x2 


E|-----------------------------------------------------------------------------------------------------------| 
B|-----------------------------------------------------------------------------------------------------------| 
G|-----------------------------------------------------------------------------------------------------------| 
D|-----------------------------------------------------------------------------------------------------------| 
A|-0000--0000--0000--0000--0000--0000--0000--0000--0000--0000--0000--0000--0000--0000--0000--0000--0-0--0-5-3| 
D|-0000--0000--0000--0000--1111--1111--1111--1111--0000--0000--0000--0000--1111--1111--1111--1111--1-1--1-5-3| 
   ****  ****  ****  ****  ****  ****  ****  ****  ****  ****  ****  ****  ****  ****  ****  ****  * *  * 

E|---------------------------------------------------------------------------------------------| 
B|---------------------------------------------------------------------------------------------| 
G|---------------------------------------------------------------------------------------------| 
D|------3-3-3-3-3-3-3-3-3-3-3-3-3-3-3-5-5-5-5-5-5-5-5-5-5-5-5-5-5-5----------------------------| 
A|------1-1-1-1-1-1-1-1-1-1-1-1-1-1-1-3-3-3-3-3-3-3-3-3-3-3-3-3-3-3--0-0---0-0---0-0---0-0---0-| 
D|-------------------------------------------------------------------0-0---0-0---0-0---0-0---0-| x3 

E|-----------------------------------------------------------------------| 
B|-----------------------------------------------------------------------| 
G|-----------------------------------------------------------------------| 
D|------3-3-3-3-3-3-3-3-3-3-3-3-3-3-3-5-5-5-5-5-5-5-5-5-5-5-5-5-5-5------| 
A|------1-1-1-1-1-1-1-1-1-1-1-1-1-1-1-3-3-3-3-3-3-3-3-3-3-3-3-3-3-3----0-| 
D|---------------------------------------------------------------------0-| FIN ;) 



************************************ 

* : Palm Mute 
/ : Slide 

************************************ 
share this page

See Also: