E-Chords
Timo Tolkki

We Will Find A Way(Tabs)

Timo Tolkki

Key: D
Hey guys, this is a tab for the song we'll find a way, it's all by ear so 
**please** if you have any corrections of any sort feel free to put them in the comment  
or send it to me via this website and I will correct. 
please comment & rate, cheers! 

Guitar 1: 
Intro 
 PMPMPMPMPM     PMPMPMPMPMPMPMPM   PMPMPMPMPMPMPMPM    PMPMPMPMPMPMPMPMPMPMPM 
e|-----------------------------------------------------------------------------| 
B|---------6-8-6p5------------6-8-6p5-------------6-8-6p5----10-8-6-10-8-6-5-8-| 
G|-7-7-5-7--------7-5-7-7-5-7--------7-7-5-7-7-5-7--------7-5------------------| 
D|-----------------------------------------------------------------------------| 
A|-----------------------------------------------------------------------------| 
E_-----------------------------------------------------------------------------| 

 PMPMPMPMPM     PMPMPMPMPMPMPMPM   PMPMPMPMPMPMPMPM    MPMPMPMPMPMPMPMPMPMPM 
e|-----------------------------------------------------------------------------| 
B|---------6-8-6p5------------6-8-6p5-------------6-8-6p5----10-8-6-10-8-6-5-8-| 
G|-7-7-5-7--------7-5-7-7-5-7--------7-7-5-7-7-5-7--------7-5------------------| 
D|-----------------------------------------------------------------------------| 
A|-----------------------------------------------------------------------------| 
E|-----------------------------------------------------------------------------| 

Intro 2nd part: 
*make a bend with 8 twice and release, listen to the song, you'll see* 
e|--------------------------------------------| 
B|-----8B8BR-6-6~~-8B8BR-6-6~~-8B8BR-6-6~~-6\-| 
G|-7~~----------------------------------------| 
D|--------------------------------------------| 
A|--------------------------------------------| 
E|--------------------------------------------| 

e|-------------| 
B|-------------| 
G|-7--7-7-5/7\-| 
D|-7--7-7-5/7\-|  X2 
A|-5--5-5-3/5\-| 
E|-------------| 

Verse is bass only, the bass note is D 

Pre-Chorus: (starts with a pickslide) 

e|-------------------------------| 
B|-------------------------------| 
G|-3-----7---------------3-----5-| 
D|-3--5--7---------------3--5--5-| 
A|-1--5--5---5-7-7B+-5\3-1--5--3-| 
E|----3---------------------3----| 

Chorus: 
Find a way..          and in the night    *strum* 
e|---------------------------------------------| 
B|---------------------------------------------| 
G|-10---5-----------5---10---5---7--5-----3--3-| 
D|-10---5---5---3---5---10---5---7--5--5--3--3-| 
A|-8----3---5---3---3---8----3---5--3--2--1--1-| 
E|----------3---1------------------------------| 

 PMPMPMPMPM     PMPMPMPMPMPMPMPM   PMPMPMPMPMPMPMPM    PMPMPMPMPMPMPMPMPMPMPM 
e|-----------------------------------------------------------------------------| 
B|---------6-8-6p5------------6-8-6p5-------------6-8-6p5----10-8-6-10-8-6-5-8-| 
G|-7-7-5-7--------7-5-7-7-5-7--------7-7-5-7-7-5-7--------7-5------------------| 
D|-----------------------------------------------------------------------------| 
A|-----------------------------------------------------------------------------| 
E|-----------------------------------------------------------------------------| 

 PMPMPMPMPM     PMPMPMPMPMPMPMPM   PMPMPMPMPMPMPMPM    MPMPMPMPMPMPMPMPMPMPM 
e|-----------------------------------------------------------------------------| 
B|---------6-8-6p5------------6-8-6p5-------------6-8-6p5----10-8-6-10-8-6-5-8-| 
G|-7-7-5-7--------7-5-7-7-5-7--------7-7-5-7-7-5-7--------7-5------------------| 
D|-----------------------------------------------------------------------------| 
A|-----------------------------------------------------------------------------| 
E|-----------------------------------------------------------------------------| 

Verse is bass only, the bass note is D (guitar leaves D note through the start) 

Pre-Chorus: (starts with a pickslide) 

e|-------------------------------| 
B|-------------------------------| 
G|-3-----7---------------3-----5-| 
D|-3--5--7---------------3--5--5-| 
A|-1--5--5---5-7-7B*-5\3-1--5--3-| 
E|----3---------------------3----| 

Chorus: 
Find a way..          and in the night    *strum* 
e|---------------------------------------------| 
B|---------------------------------------------| 
G|-10---5-----------5---10---5---7--5-----3--3-| 
D|-10---5---5---3---5---10---5---7--5--5--3--3-| 
A|-8----3---5---3---3---8----3---5--3--2--1--1-| 
E|----------3---1------------------------------| 

e|-------------| 
B|-------------| 
G|-7--7-7-5/7\-| 
D|-7--7-7-5/7\-|  X3 
A|-5--5-5-3/5\-| 
E|-------------| 

SOLO 
e|-------------------------------------------------------------------| 
B|--------------------------------------------------------11-13-15~~-| 
G|----------------------------------10-----10-12--10-12-14-----------| 
D|--------------------------10-12-14--12-14-----14-------------------| 
A|---------10-12-13-10-12-13-----------------------------------------| 
E|-10-12-13----------------------------------------------------------| 

e|--------------------------------------------| 
B|-13\11~~------------------------------------| 
G|--------14-12-14BR~-12----------------------| 
D|----------------------15-14~-12\10~---------| 
A|------------------------------------14\12~~-| 
E|--------------------------------------------| 
                                                   SHRED SHRED SHRED SHRED 
e|-------------------------------------------------------171717------181818-| 
B|-----------------13B-------15B------17B------18B-201817------201817-------| 
G|---------12h14h15----151412---171514---191715-----------------------------| 
D|-12h14h15-----------------------------------------------------------------| 
A|--------------------------------------------------------------------------| 
E|--------------------------------------------------------------------------| 
   SHRED SHRED SHRED SHRED SHRED SHRED SHRED SHRED SHRED SHRED SHRED SHRED 
e|-------171717------181818-------171717--------1817-----------------------17-| 
B|-201817------201817-------201817-------201817-----201817---------------18---| 
G|--------------------------------------------------------1917-------1719-----| 
D|------------------------------------------------------------20191920--------| 
A|----------------------------------------------------------------------------| 
E|----------------------------------------------------------------------------| 

Let the last note ring through the start of last Chorus 

Find a way..          and in the night    *strum* 
e|---------------------------------------------| 
B|---------------------------------------------| 
G|-10---5-----------5---10---5---7--5-----3--3-| 
D|-10---5---5---3---5---10---5---7--5--5--3--3-| 
A|-8----3---5---3---3---8----3---5--3--2--1--1-| 
E|----------3---1------------------------------| 

Outro: 
 PMPMPMPMPM     PMPMPMPMPMPMPMPM   PMPMPMPMPMPMPMPM    PMPMP 
e|--------------------------------------------------------------------------| 
B|---------6-8-6p5------------6-8-6p5-------------6-8-6p5-------------------| 
G|-7-7-5-7--------7-5-7-7-5-7--------7-7-5-7-7-5-7--------7-5-7-7--7-7-5/7\-| 
D|------------------------------------------------------------7-7--7-7-5/7\-| 
A|------------------------------------------------------------5-5--5-5-3/5\-| 
E|--------------------------------------------------------------------------| 

Through the ending there's another guitar that goes: 

e|------------13-15-13p12--------------------------| 
B|-15-15-13-15-----------15-13-15-15--15-15-13-15\-| 
G|-------------------------------------------------| 
D|-------------------------------------------------| 
A|-------------------------------------------------| 
E|-------------------------------------------------| 

Guitar 2: 

Intro:                   Intro 2nd part 
e|-----------------------|----------------|-------------| 
B|-----------------------|----------------|-------------| 
G|-7----3---5-7----3---5-|-7--5-----3--3\-|-7--7-7-5/7\-| 
D|-7----3---5-7----3---5-|-7--5--5--3--3\-|-7--7-7-5/7\-|  X2 
A|-5----1---3-5----1---3-|-5--3--2--1--1\-|-5--5-5-3/5\-| 
E|-----------------------|----------------|-------------| 

Verse is bass only, the bass note is D 

Pre-Chorus: (starts with a pickslide) 

e|-------------------------------| 
B|-------------------------------| 
G|-3-----7---------------3-----5-| 
D|-3--5--7---------------3--5--5-| 
A|-1--5--5---5-7-7B+-5\3-1--5--3-| 
E|----3---------------------3----| 

Chorus: 
Find a way..          and in the night    *strum* 
e|---------------------------------------------| 
B|---------------------------------------------| 
G|-10---5-----------5---10---5---7--5-----3--3-| 
D|-10---5---5---3---5---10---5---7--5--5--3--3-| 
A|-8----3---5---3---3---8----3---5--3--2--1--1-| 
E|----------3---1------------------------------| 

Interlude (same as intro) 
e|-----------------------| 
B|-----------------------| 
G|-7----3---5-7----3---5-| 
D|-7----3---5-7----3---5-| X2 
A|-5----1---3-5----1---3-| 
E|-----------------------| 

Verse is bass only, the bass note is D 

Pre-Chorus: (starts with a pickslide) 

e|-------------------------------| 
B|-------------------------------| 
G|-3-----7---------------3-----5-| 
D|-3--5--7---------------3--5--5-| 
A|-1--5--5---5-7-7B+-5\3-1--5--3-| 
E|----3---------------------3----| 

Chorus: 
Find a way..          and in the night    *strum* 
e|---------------------------------------------| 
B|---------------------------------------------| 
G|-10---5-----------5---10---5---7--5-----3--3-| 
D|-10---5---5---3---5---10---5---7--5--5--3--3-| 
A|-8----3---5---3---3---8----3---5--3--2--1--1-| 
E|----------3---1------------------------------| 

Pre-Solo: 
e|-------------| 
B|-------------| 
G|-7--7-7-5/7\-| 
D|-7--7-7-5/7\-|  X4 
A|-5--5-5-3/5\-| 
E|-------------| 

Solo: 

e|------------------------| 
B|------------------------| 
G|-3-----7--------3-----5-| 
D|-3--5--7--------3--5--5-| 
A|-1--5--5--------1--5--3-| 
E|----3--------------3----| 


Chorus: 
Find a way..          and in the night    *strum* 
e|---------------------------------------------| 
B|---------------------------------------------| 
G|-10---5-----------5---10---5---7--5-----3--3-| 
D|-10---5---5---3---5---10---5---7--5--5--3--3-| 
A|-8----3---5---3---3---8----3---5--3--2--1--1-| 
E|----------3---1------------------------------| 

Outro: 

e|--------------------------| 
B|--------------------------| 
G|-7--7--7--7-7--7-7-7-5/7\-| 
D|-7--7--7--7-7--7-7-7-5/7\-|  X4 
A|-5--5--5--5-5--5-5-5-3/5\-| 
E|--------------------------| 

This is it. 

Hope you enjoy! 
Eldad. 

************************************ 

| /   slide up 
| \   slide down 
| h   hammer-on 
| p   pull-off 
| ~   vibrato 
| +   harmonic 
| x   Mute note 
| b   Bend 
| pb  Pre-bend 
| br  Bend release 
| pbr Pre-bend release 
| brb Bend release bend 

************************************ 

roll up this ad to continue

share this page

See Also: