E-Chords
Tierra Sant

Medieval(Tabs)

Tierra Sant

Key: D
~:Vibrato 
/:Slide 
x2 
e|---------------------||---------------| 
B|--3~--5-6-6-5-3-1----||--5-3-6-5-1-3--| 
G|------------------2~-||---------------| 
D|---------------------||---------------| 
A|---------------------||---------------| 
E|---------------------||---------------| 
 
e|---------3--5/6-5--||--5-3------------| 
B|--5-6-6------------||------6-5-3-1-3~-| 
G|-------------------||-----------------| 
D|-------------------||-----------------| 
A|-------------------||-----------------| 
E|-------------------||-----------------|
Hace ya mucho tiempo en un reino desigual la fuerza del acero reinó. Fueron siglos de cruzadas de leyendas y temor de conquista y traición Medieval. D C D A# A X4 D Por los caminos cabalgó D la tropa del invasor D y las espadas sonarán A# G la batalla comenzó. D De rojo el campo se tiñó D con sangre y con valor D por un poco de tierra más A# G sin justicia ni temor. A# A Y la magia surgirá A# A en el reino medieval. D C D Medieval A# A una época de guerra y poder. D C D Un lugar A# A de castillos de leyendas y de fe. D C D Medieval A# A una Época que quiere renacer. D C D Un lugar A# A de misterios de leyendas y de fe.
x2 
e|--------3-6-5-3--------||--------3--8-6-5-3--| 
B|--3-5-6---------6-5-3--||--3-5-6-------------| 
G|-----------------------||--------------------| 
D|-----------------------||--------------------| 
A|-----------------------||--------------------| 
E|-----------------------||--------------------| 
 
e|--------3--5-3--------||----------------3-5-3-------| 
B|--3-5-6--------6-5-3--||--3---3-5-6-5-6------6-5-3--| 
G|----------------------||----5-----------------------| 
D|----------------------||----------------------------| 
A|----------------------||----------------------------| 
E|----------------------||----------------------------|
D-D -- Por los caminos van D-D -- dispuestos a luchar D-D -- ellos son hijos C A#-A del reino medieval. D-D -- Son herederos de D-D -- la raza singular D-D -- que en otro tiempo C A#-A buscaron libertad.
Solo: 
 
 
Luego: 
 
x2 
e|--------3-6-5-3--------||--------3--8-6-5-3--| 
B|--3-5-6---------6-5-3--||--3-5-6-------------| 
G|-----------------------||--------------------| 
D|-----------------------||--------------------| 
A|-----------------------||--------------------| 
E|-----------------------||--------------------| 
 
e|--------3--5-3--------||----------------3-5-3-------| 
B|--3-5-6--------6-5-3--||--3---3-5-6-5-6------6-5-3--| 
G|----------------------||----5-----------------------| 
D|----------------------||----------------------------| 
A|----------------------||----------------------------| 
E|----------------------||----------------------------|
A# A Y la magia surgirá A# A en el reino medieval. D C D Medieval A# A una época de guerra y poder. D C D Un lugar A# A de castillos de leyendas y de fe. D C D Medieval A# A una Época que quiere renacer. D C D Un lugar A# A de misterios de leyendas y de fe.
e|---------------------------------3~--------------|| 
B|--6-5-3~----3-5-6-5-3~---3-5-6-5--------6-5-3----|| 
G|---------5-------------5--------------5-------2~-|| 
D|-------------------------------------------------|| 
A|-------------------------------------------------|| 
E|-------------------------------------------------|| 
 
e|---------------------------------3~----------5--|| 
B|--6-5-3~----3-5-6-5-3~---3-5-6-5---------6-5----|| 
G|---------5-------------5--------------5---------|| 
D|------------------------------------------------|| 
A|------------------------------------------------|| 
E|------------------------------------------------|| 

roll up this ad to continue

share this page

See Also: