E-Chords
Tierra Sant

Caballo De Troya(Tabs)

Tierra Sant

Caballo De Troya(Mago de Oz) 
Tierra Santa 
 
 
intro 
1|------------------------------------------------------------ 
2|------------------------------------------------------------ 
3|------------------------------------------------------------ 
4|------------------------------------------------------------ 
5|----0-0-0-0-0-0-0-0--3--0-0-0-0-0-0-0--5--0-0-0-0-0-0-0--10- 
6|------------------------------------------------------------ 
 
 
 
1|------------------------------------------------------------  X4 
2|------------------------------------------------------------ 
3|------------------------------------------------------------ 
4|------------------------------------------------------------ 
5|-----0------------------------------------------------------ 
6|-----------1-3---------------------------------------------- 
 
 
        (Verso) (0:15) 
1|------------------------------------------------------------ 
2|------------------------------------------------------------ 
3|------2-------------------5-------------------------2------- 
4|------2--------3----------5------5-------3----5-----2------- 
5|------0--------3----------3------5-------3----5-----0------- 
6|---------------1-----------------3-------1----3------------- 
 
dicen que en troya una vez... 
 
1|------------------------------------------------------------ 
2|------------------------------------------------------------ 
3|-----------5--------------------------------------2--------- 
4|----3------5------5-----------3---5---3------5----2--------- 
5|----3------3------5-----------3---5---3------5----0--------- 
6|----1-------------3-----------1---3---1------3-------------- 
 
 
 
1|------------------------------------------------------------ X2 
2|------------------------------------------------------------ 
3|------------------------------------------------------------ 
4|------------------------------------------------------------ 
5|---0-0-0-0-0-0-0--3--0-0-0-0-0-0-0--5--0-0-0-0-0-0-0--10---- 
6|------------------------------------------------------------ 
 
 
 
1|------------------------------------------------------------ 
2|------------------------------------------------------------ 
3|-------------------2---------------2-----------------5------ 
4|----3-------5------2------3---5----2--------3--------5------ 
5|----3-------5------0------3---5----0--------3--------3------ 
6|----1-------3-------------1---3-------------1--------------- 
 
pero antes de irse de alli un regalo quedo!!/ un griego les convencio... 
 
1|------------------------------------------------------------ 
2|------------------------------------------------------------ 
3|-------------------2----------------5----------------------- 
4|---5----3----5-----2-------3--------5-----5-------3---5---3- 
5|---5----3----5-----0-------3--------3-----5-------3---5---3- 
6|---3----1----3-------------1--------------3-------1---3---1- 
 
 
 
1|------------------------------------------------------------ 
2|------------------------------------------------------------ 
3|------------2----------------------------------------------- 
4|---5--------2----------------------------------------------- 
5|---5--------0----------------------------------------------- 
6|---3-------------------------------------------------------- 
 
 
 
1|------------------------------------------------------------ 
2|------------------------------------------------------------ 
3|------------------------------------------------------------ 
4|------------------------------------------------------------ 
5|---0-0-0-0-0-0-0--3--0-0-0-0-0-0--5--0-0-0-0-0-0--10-------- 
6|------------------------------------------------------------ 
 
 
 
1|------------------------------------------------------------ 
2|------------------------------------------------------------ 
3|------------------------------------------------------------ 
4|-----3--------5-------2--------3----5----------------------- 
5|-----3--------5-------2--------3----5----------------------- 
6|-----1--------3-------0--------1----3----------------------- 
 
(coro) 
 
1|------------------------------------------------------------ 
2|------------------------------------------------------------ 
3|-----2---------------------5-------------2------------------ 
4|-----2------3-------5------5-------5-----2-------3------5--- 
5|-----0------3-------5------3-------5-----0-------3------5--- 
6|------------1-------3--------------3-------------1------3--- 
 
CABALLO! DE TROYA!... 
 
1|------------------------------------------------------------ 
2|------------------------------------------------------------ 
3|---5------------2----------------------5-------------------- 
4|---5----3-------2-------3--------5-----5-----3------5------- 
5|---3----3-------0-------3--------5-----3-----3------5------- 
6|--------1---------------1--------3-----------1------3------- 
 
 
 
1|------------------------------------------------------------ 
2|------------------------------------------------------------ 
3|-------------2---------------------------------------------- 
4|-------------2---------------------------------------------- 
5|-------------0---------------------------------------------- 
6|------------------------------------------------------------ 
 
 
         (Antes del solo va esta parte) 
1|------------------------------------------------------------ X6 
2|------------------------------------------------------------ 
3|------------------------------------------------------------ 
4|------------------------------------------------------------ 
5|-----0-0-0-0-0-0-0-0-8-10-7----0-0-0-0-0-0-0-7-8-5---------- 
6|------------------------------------------------------------ 
 
(solo) 1:50  este esta cañon...pero comoquiera lo saque igual 
^^ :} 
 
1|-----------------------------5^8--------12------------------ 
2|----8b10-8b10r8-5^8- 5^8---------15b17-----15b17r15--------- 
3|------------------------------------------------------------ 
4|------------------------------------------------------------ 
5|------------------------------------------------------------ 
6|------------------------------------------------------------ 
 
 
 
1|------------------------------------------------------------ 
2|-12^15^12----12^15^12--------------------------------------- 
3|----------14----------14-12^(14)---14b16r14------12--------- 
4|-------------------------------------------14b16---14b16r12- 
5|------------------------------------------------------------ 
6|------------------------------------------------------------ 
 
 
 
1|------------------------------------------------------------ 
2|------------------------------------------------------------ 
3|--------------------------12^14^12----12-------------------- 
4|------12^14^12-----12^14-----------14----14--12^14^12------- 
5|-12^14---------14------------------------------------14-12-- 
6|------------------------------------------------------------ 
 
 
 
1|------------------------------------------------------------ 
2|---15b17-15b17--15^12--------------------------------------- 
3|-----------------------14b16---14r12----14------------------ 
4|------------------------------------------------------------ 
5|------------------------------------------------------------ 
6|------------------------------------------------------------ 
 
 
 
1|------------------------------------------------------------ 
2|--------12-15-15b17r15--12---------------------------------- 
3|-----14--------------------14--12^14------------------------ 
4|------------------------------------------------------------ 
5|------------------------------------------------------------ 
6|------------------------------------------------------------ 
 
 
 
1|-----------------------------------------------12^15^12----- 
2|----------------------------12^15^12----12^15--------------- 
3|----------12^14^12----12^14----------14--------------------- 
4|----12^14----------14--------------------------------------- 
5|------------------------------------------------------------ 
6|------------------------------------------------------------ 
 
 
 
1|------------------------------------------------------------ 
2|---15--12^15^12----12^15^12---15b17-15b17------------------- 
3|----------------14------------------------------------------ 
4|------------------------------------------------------------ 
5|------------------------------------------------------------ 
6|------------------------------------------------------------ 
esta parte va tocando cada nota muchas veces 
 parte va tocando cada nota muchas veces 
 Ej(10-10-10-10-12-12-12-12-13-13-13-15-15-15) 
 
1|--------------------------12-14-15-15b17-15b17-------------- 
2|-10-12-13-15--12-14-15-17----------------------------------- 
3|------------------------------------------------------------ 
4|------------------------------------------------------------ 
5|------------------------------------------------------------ 
6|------------------------------------------------------------ 
 (solo termina y pasa al outro del solo) 
 
esto va rapido 
1|------------------------------------------------------------ 
2|------------------------------------------------------------ 
3|-------5^7^5---/9---7--5^7^5---------5^7^5--/9---7--5^7^5--- 
4|-7---7-------------------------7--7------------------------- 
5|------------------------------------------------------------ 
6|------------------------------------------------------------ 
 
 
 
1|------------------------------------------------------------ X2 
2|------------------------------------------------------------ 
3|-------5^7^5--/9--7--5^7^5----5^7^5------------------------- 
4|--7--7---------------------7--------7-5^7^5------------7---- 
5|--------------------------------------------7-5^7^5-7------- 
6|------------------------------------------------------------ 
 
segunda vez termina asi 
 
 
1|------------------------------------------------------------ X2 
2|------------------------------------------------------------ 
3|-------5^7^5--/9--7--5^7^5----5^7^5------------------------- 
4|--7--7---------------------7--------7-5^7^5-----------7--(9)   <--- 
5|--------------------------------------------7-5^7^5-7------- 
6|------------------------------------------------------------ 
 
Coro: 
 
1|------------------------------------------------------------ 
2|------------------------------------------------------------ 
3|-----2---------------------5-------------2------------------ 
4|-----2------3-------5------5-------5-----2-------3------5--- 
5|-----0------3-------5------3-------5-----0-------3------5--- 
6|------------1-------3--------------3-------------1------3--- 
 
CABALLO! DE TROYA!... 
 
1|------------------------------------------------------------ 
2|------------------------------------------------------------ 
3|---5------------2----------------------5-------------------- 
4|---5----3-------2-------3--------5-----5-----3------5------- 
5|---3----3-------0-------3--------5-----3-----3------5------- 
6|--------1---------------1--------3-----------1------3------- 
 
 
 
1|------------------------------------------------------------ 
2|------------------------------------------------------------ 
3|-------------2---------------------------------------------- 
4|-------------2---------------------------------------------- 
5|-------------0---------------------------------------------- 
6|------------------------------------------------------------ 
 
 
Outro 
 
1|------------------------------------------------------------ X5 
2|------------------------------------------------------------ 
3|------------------------------------------------------------ 
4|------------------------------------------------------------ 
5|-----0-0-0-0-0-0-0-8-10-7-0-0-0-0-0-7-8-5------------------- 
6|------------------------------------------------------------ 
 
 
el final es cortante... acaba con 
5|-------------0--------------- cerrado 
 
 
LETRA 
 
Dicen que en Troya una vez 
Una batalla empezó 
Forjando así su leyenda 
 
 
Y que diez años pasó 
Sitiada por la ambisión 
De poseer la ciudad 
 
 
Al no poderla Invadir 
los griegos fueron marchando 
Pero antes de irse de allí 
Un gran regalo quedó 
 
 
Un griego les convenció 
Que era un regalo de un dios 
Y de que abrieran las puertas 
 
 
Un gran caballo asomó 
En su interior una trampa 
Con piel de madera 
 
 
En Troya todos creyeron que habían vencido 
Pero la noche llegó y el enemigo cayó 
 
 
(CORO) 
Caballo de Troya 
Cabalga en la historia el regalo de un dios 
Caballo de Troya 
Su piel y su nombre leyenda forjó 
Caballo de Troya 
Están escondidos dentro en su interior 
Esperan la noche para la traición 
 
(solo) 
 
(CORO) 
Caballo de Troya 
Cabalga en la historia el regalo de un dios 
Caballo de Troya 
Su piel y su nombre leyenda forjó 
Caballo de Troya 
Están escondidos dentro en su interior 
Esperan la noche para la traición 
 
 
 
 

roll up this ad to continue

share this page

See Also: