E-Chords
Thin Lizzy

The Pressure Will Blow(Tabs)

Thin Lizzy

E|-----------------|-----------------| 
B|-----------------|-----------------| 
G|-----------------|-----------------| 
D|-6-6-------------|-2-2---4-4-------| 
A|-4-4-------------|-0-0---2-2-------| 
E|-----------------|-----------0-0-0-| 


Chorus Riff 

   1 e 2 e 3 e 4 e   1 e 2 e 3 e 4 e 
 
E|-----------------|-----------------| 
B|-----------------|-----------------| 
G|-----------------|-----------------| 
D|---2-------------|-----------------| 
A|-----4-----------|---------4-------| 
E|-2-----0-2-0---0-|-0---2-----0-0-0-| 

roll up this ad to continue

share this page

See Also: