E-Chords
Thin Lizzy

The Boys are Back in Town(Tabs)

Thin Lizzy

Watch the video lesson
 
Gtr I (Eb Ab Db Gb Bb Eb) - 'Gtr.I Dirty' 
Gtr II (Eb Ab Db Gb Bb Eb) - 'Gtr.II Dirty' 
Gtr III (Eb Ab Db Gb Bb Eb) - 'Extra Dubbed ' 
Gtr IV (Eb Ab Db Gb Bb Eb) - 'Extra Dubbed' 
 
 Intro 
  Moderately Fast Rock Q=160(8=s8) 
  Ab5                             Bb5                Db5                 Ab5 
 4/4 
  Gtr I 
                 PM-----------|              PM----|                 PM| 
                 |-3--|                      |-3-| 
  H..       E    E  E E E E E E E E   +H     E E E e E   +H      +E  E E E 
|-------------|---------------------|------------------|-------------------| 
|-------------|---------------------|------------------|-------------------| 
|-2-----------|-------------------4-|-(4)------------7-|-(7)-----(7)-----2-| 
|-2---------0-|--4--4-4-2---2-2---4-|-(4)----4-4-4-4-7-|-(7)-----(7)-----2-| 
|-0-----------|-----------4-------2-|-(2)------------5-|-(5)-----(5)-0-0-0-| 
|-------------|---------------------|------------------|-------------------| 
| 
| Gtr II 
| W             +H.             E E   +H.          E E   +H..            E 
|-------------|---------------------|------------------|-------------------| 
|-------------|---------------------|------------------|-------------------| 
|-2-----------|-(2)---------------4-|-(4)------------7-|-(7)-------------2-| 
|-2-----------|-(2)---------------4-|-(4)------------7-|-(7)-------------2-| 
|-0-----------|-(0)---------------2-|-(2)------------5-|-(5)-------------0-| 
|-------------|---------------------|------------------|-------------------| 
 
 
  Ab5                              Bb5              Db5                 Ab5 
                  PM-----------|              PM                    PM| 
                  |-3--| 
  +H..       E    E  E E E E E E E E   +H     E E E E   +H      +E  E E E 
|--------------|---------------------|----------------|-------------------| 
|--------------|---------------------|----------------|-------------------| 
|-(2)----------|-------------------4-|-(4)------4---7-|-(7)-----(7)-----2-| 
|-(2)--------0-|--4--4-4-2---2-2---4-|-(4)----4-----7-|-(7)-----(7)-----2-| 
|-(0)----------|-----------4-------2-|-(2)----------5-|-(5)-----(5)-0-0-0-| 
|--------------|---------------------|----------------|-------------------| 
| 
| +W             +H.             E E   +H.        E E   +H..            E 
|--------------|---------------------|----------------|-------------------| 
|--------------|---------------------|----------------|-------------------| 
|-(2)----------|-(2)---------------4-|-(4)----------7-|-(7)-------------2-| 
|-(2)----------|-(2)---------------4-|-(4)----------7-|-(7)-------------2-| 
|-(0)----------|-(0)---------------2-|-(2)----------5-|-(5)-------------0-| 
|--------------|---------------------|----------------|-------------------| 
 
 
  Ab5                              Bb5            Db5                 Ab5 
                  PM-----------|                                  PM| 
                  |-3--| 
  +H..       E    E  E E E E E E E E   +H.      E E   +H      +E  E E E 
|--------------|---------------------|--------------|-------------------| 
|--------------|---------------------|--------------|-------------------| 
|-(2)----------|-------------------4-|-(4)--------7-|-(7)-----(7)-----2-| 
|-(2)--------0-|--4--4-4-2---2-2---4-|-(4)--------7-|-(7)-----(7)-----2-| 
|-(0)----------|-----------4-------2-|-(2)--------5-|-(5)-----(5)-0-0-0-| 
|--------------|---------------------|--------------|-------------------| 
| 
| +W             +H.             E E   +H.      E E   +H..            E 
|--------------|---------------------|--------------|-------------------| 
|--------------|---------------------|--------------|-------------------| 
|-(2)----------|-(2)---------------4-|-(4)--------7-|-(7)-------------2-| 
|-(2)----------|-(2)---------------4-|-(4)--------7-|-(7)-------------2-| 
|-(0)----------|-(0)---------------2-|-(2)--------5-|-(5)-------------0-| 
|--------------|---------------------|--------------|-------------------| 
 
 
  Ab5                              Bb5                Db 
                  PM-----------| 
                  |-3--| 
  +H..       E    E  E E E E E E E E   +H     +E  E E E   +H..       E 
|--------------|---------------------|------------------|--------------|| 
|--------------|---------------------|----------------7-|-(7)----------|| 
|-(2)----------|-------------------4-|-(4)----(4)-4---7-|-(7)----------|| 
|-(2)--------0-|--4--4-4-2---2-2---4-|-(4)----(4)-----7-|-(7)----------|| 
|-(0)----------|-----------4-------2-|-(2)----(2)-----5-|-(5)--------0-|| 
|--------------|---------------------|------------------|--------------|| 
| 
| +W             +H.             E E   +H.          E E   +W 
|--------------|---------------------|------------------|--------------|| 
|--------------|---------------------|----------------7-|-(7)----------|| 
|-(2)----------|-(2)---------------4-|-(4)------------7-|-(7)----------|| 
|-(2)----------|-(2)---------------4-|-(4)------------7-|-(7)----------|| 
|-(0)----------|-(0)---------------2-|-(2)------------5-|-(5)----------|| 
|--------------|---------------------|------------------|--------------|| 
 
 
 1st Verse 
  Ab5           Cm                    Db                 Fm                 Cm7 
  H     +E  Q   E   +E  E E E  E  E E E   +H     +E  E E E   +H     +E  E E E 
|-----------------|-----4------4--4-----|------------------|------------2---4--| 
|-----------------|-----5------5--5---7-|-(7)----(7)-7-----|------------2---5--| 
|-2-----(2)-----6-|-(6)-4---6--4--4---7-|-(7)----(7)-7-----|----------------4--| 
|-2-----(2)-----6-|-(6)-----6---------7-|-(7)----(7)-----4-|-(4)----(4)--------| 
|-0-----(0)-0---4-|-(4)-----4-----------|----------------4-|-(4)----(4)--------| 
|-----------------|---------------------|--------------0-2-|-(2)----(2)--------| 
| 
| H.          E E   +H        +E  E E E   +H     +E  E E E   +H     +E  E E E 
|---------------4-|-(4)-------(4)-4-----|----------------2-|-(2)----(2)-2---4--| 
|---------------5-|-(5)-------(5)-5---7-|-(7)----(7)-7---2-|-(2)----(2)-2---5--| 
|-2-------------6-|-(6)-------(6)-6---7-|-(7)----(7)-7---2-|-(2)----(2)-2---4--| 
|-2-------------6-|-(6)-------(6)-6---7-|-(7)----(7)-7---4-|-(4)----(4)-4---6--| 
|-0-------------4-|-(4)-------(4)-4---5-|-(5)----(5)-5---4-|-(4)----(4)-4---4--| 
|-----------------|---------------------|----------------2-|-(2)----(2)-2------| 
 
 
  Cm7            F7sus4              Bbm7               Bbm11/Eb          Ab5 
  +H     +E  E E E   +Q   H        E E   +H      E  E E E   +H      E E E E 
|-(4)----(4)-4-----|------2----------2-|-(2)-----2--2---2-|-(2)-----2-2------| 
|-(5)----(5)-5-----|-----------------3-|-(3)-----3--3---3-|-(3)-----3-3------| 
|-(4)----(4)-4-----|-----------------2-|-(2)-----2--2---2-|-(2)-----2-2---2--| 
|----------------4-|-(4)---------------|--------------4-2-|-(2)-----------2--| 
|----------------4-|-(4)---------------|------------------|---------------0--| 
|----------------2-|-(2)--2------------|------------------|------------------| 
| 
| +H     +E  E E E   +H      +E  E E E   +H     +E  E E E   +H..          E 
|-(4)----(4)-4---2-|-(2)-----(2)-2---2-|-(2)----(2)-2---2-|-(2)--------------| 
|-(5)----(5)-5---2-|-(2)-----(2)-2---3-|-(3)----(3)-3---3-|-(3)--------------| 
|-(4)----(4)-4---4-|-(4)-----(4)-4---2-|-(2)----(2)-2---2-|-(2)-----------2--| 
|-(6)----(6)-6---2-|-(2)-----(2)-2---4-|-(4)----(4)-4---2-|-(2)-----------2--| 
|-(4)----(4)-4---4-|-(4)-----(4)-4---2-|-(2)----(2)-2---2-|-(2)-----------0--| 
|----------------2-|-(2)-----(2)-2-----|----------------0-|-(0)--------------| 
 
 
  Ab5            Cm                    Db 
  +H     +E  E E E   +E  E E E  E  E E E 
|------------------|-----4------4--4-----| 
|------------------|-----5------5--5---7-| 
|-(2)----(2)-----6-|-(6)-4---6--4--4---7-| 
|-(2)----(2)-2---6-|-(6)-----6---------7-| 
|-(0)----(0)---0-4-|-(4)-----4-----------| 
|------------------|---------------------| 
| 
| +H.          E E   +H        +E  E E E 
|----------------4-|-(4)-------(4)-4-----| 
|----------------5-|-(5)-------(5)-5---7-| 
|-(2)------------6-|-(6)-------(6)-6---7-| 
|-(2)------------6-|-(6)-------(6)-6---7-| 
|-(0)------------4-|-(4)-------(4)-4---5-| 
|------------------|---------------------| 
 
 
                 E/B                    Cm7 
  +H     +E  Q    E    +H       E   E E E 
|-------------------|----------------------| 
|-(7)----(7)-7---10-|-(10)-----10-------9--| 
|-(7)----(7)-7---10-|-(10)--------------9--| 
|-(7)----(7)-7---10-|-(10)----------7---9--| 
|-------------------|----------------------| 
|-------------------|----------------------| 
| 
| +H     +E  E E  E    +H      +E   E E E 
|-------------------|-------------------4--| 
|-(7)----(7)-7---10-|-(10)----(10)-10---5--| 
|-(7)----(7)-7---10-|-(10)----(10)-10---4--| 
|-(7)----(7)-7---10-|-(10)----(10)-10---6--| 
|-(5)----(5)-5------|-------------------4--| 
|-------------------|----------------------| 
 
 
  Cm7            Fm7                Bbm7               Bbm11/Eb           Ab5 
  +H     +E  E E E   +H     +E  E E E   +H     +E  E E E   +H     +E  E E E 
|------------------|------------2---2-|-(2)----(2)-2-----|------------2------|| 
|-(9)----(9)-9-----|------------2---3-|-(3)----(3)-3---3-|-(3)----(3)--------|| 
|-(9)----(9)-9-----|----------------2-|-(2)----(2)-----2-|-(2)----(2)--------|| 
|-(9)----(9)-9-x-4-|-(4)----(4)-------|----------------2-|-(2)----(2)---4-2--|| 
|--------------x-4-|-(4)----(4)-------|------------------|----------------0--|| 
|--------------x-2-|-(2)----(2)-------|------------------|-------------------|| 
| 
| +H     +E  E E E   +H     +E  E E E   +H     +E  E E E   +W 
|-(4)----(4)-4---2-|-(2)----(2)-2---2-|-(2)----(2)-2---2-|-(2)---------------|| 
|-(5)----(5)-5---2-|-(2)----(2)-2---3-|-(3)----(3)-3---3-|-(3)---------------|| 
|-(4)----(4)-4---2-|-(2)----(2)-2---2-|-(2)----(2)-2---2-|-(2)---------------|| 
|-(6)----(6)-6---2-|-(2)----(2)-2---4-|-(4)----(4)-4---2-|-(2)---------------|| 
|-(4)----(4)-4---4-|-(4)----(4)-4---2-|-(2)----(2)-2---2-|-(2)---------------|| 
|----------------2-|-(2)----(2)-2-----|----------------0-|-(0)---------------|| 
 
 
 Chorus 
  $ 
  Ab5                    Db/F      Bb5                Db5            Ab5 
                 PM------------|                                   PM 
                 |--3--| 
  H..       E    E   E E E E E E E E   +H     +E  E E E   +H.      E E 
|-------------|----------------------|------------------|--------------| 
|-------------|----------------------|------------------|--------------| 
|-2-----------|--------------------4-|-(4)----(4)-x-x-7-|-(7)--------2-| 
|-2---------0-|--4---4-4-2---2-4---4-|-(4)----(4)-x-x-7-|-(7)--------2-| 
|-0-----------|------------4-----0-2-|-(2)----(2)-x-x-5-|-(5)------0-0-| 
|-------------|----------------------|------------------|--------------| 
| 
|                                                                  PM 
| W             +H..               E   +H.          E E   +H.      E E 
|-------------|----------------------|------------------|--------------| 
|-------------|----------------------|------------------|--------------| 
|-2-----------|-(2)----------------4-|-(4)------------7-|-(7)--------2-| 
|-2-----------|-(2)----------------4-|-(4)------------7-|-(7)--------2-| 
|-0-----------|-(0)----------------2-|-(2)------------5-|-(5)------0-0-| 
|-------------|----------------------|------------------|--------------| 
 
 
  Ab5                   Db/F     Bb5                Db5            Ab5 
                                                                 PM 
  +W           +E   E a Q  E E E E   +H     +E  E E E   +H.      E E 
|------------|---------------------|------------------|--------------| 
|------------|--------2h3----------|------------------|--------------| 
|-(2)--------|-(2)------2--------4-|-(4)----(4)-x-x-7-|-(7)--------2-| 
|-(2)--------|-(2)--2-2h4--2-2---4-|-(4)----(4)-x-x-7-|-(7)--------2-| 
|-(0)--------|-(0)--0----------0-2-|-(2)----(2)-x-x-5-|-(5)------0-0-| 
|------------|---------------------|------------------|--------------| 
| 
|                                                                PM 
| +W           +H..              E   +H.          E E   +H.      E E 
|------------|---------------------|------------------|--------------| 
|------------|---------------------|------------------|--------------| 
|-(2)--------|-(2)---------------4-|-(4)------------7-|-(7)--------2-| 
|-(2)--------|-(2)---------------4-|-(4)------------7-|-(7)--------2-| 
|-(0)--------|-(0)---------------2-|-(2)------------5-|-(5)------0-0-| 
|------------|---------------------|------------------|--------------| 
 
 
  Ab5                      Db/AAb5   Bb5 
  +W             +E    E   Q   E E E E 
|--------------|-----------------------| 
|--------------|-----------3-------3---| 
|-(2)----------|-(2)-------2---2-2-2-4-| 
|-(2)----------|-(2)-------4---2-2-4-4-| 
|-(0)----------|-(0)---0---0---0-0---2-| 
|--------------|-----------------------| 
| 
|                 PM-------------| 
|                 |--3---| 
| +H..       E    E  E   E E E E E E E 
|--------------|-----------------------| 
|--------------|-----------------------| 
|-(2)----------|---------------------4-| 
|-(2)--------0-|--4--4---4-2---2-4---4-| 
|-(0)----------|-------------4-----0-2-| 
|--------------|-----------------------| 
 
 
                 Db 
                                  |-3-| 
  +H     +E  E E E   +H     +E  E E E E 
|------------------|--------------------|| 
|------------------|--------------------|| 
|-(4)----(4)-x---7-|-(7)----(7)-------6-|| 
|-(4)----(4)-x---7-|-(7)----(7)-7-7h9---|| 
|-(2)----(2)-x---5-|-(5)----(5)---------|| 
|------------------|--------------------|| 
| 
|                                 |-3-| 
| +H.          E E   +H     +E  E E E E 
|------------------|--------------------|| 
|----------------7-|-(7)----(7)---------|| 
|-(4)------------7-|-(7)----(7)---------|| 
|-(4)------------7-|-(7)----(7)-------7-|| 
|-(2)------------5-|-(5)----(5)-7-7h9---|| 
|------------------|--------------------|| 
 
 
 Guitar Break 
  ~~                 ~~                 ~~ 
             |-3-|              |-3-|              |-3-|   |-3-| |-3-| 
  Q.   E E E E E E   Q.   E E E E E E   Q.   E E E E E E   Q Q Q Q Q Q 
|------------------|------------------|------------------|-------------| 
|------------------|------------------|------------------|-------------| 
|-6--------------6-|-6--------------6-|-9--------------6-|-7-7-7-7-6---| 
|------7---7-7h9---|------7---7-7h9---|------7---7-7h9---|-----------9-| 
|------------------|------------------|------------------|-------------| 
|------------------|------------------|------------------|-------------| 
| 
| ~~                 ~~                 ~~ 
|            |-3-|              |-3-|              |-3-|   |-3-| |-3-| 
| Q.   E E E E E E   Q.   E E E E E E   Q.   E E E E E E   Q Q Q Q Q Q 
|------------------|------------------|------------------|-------------| 
|------------------|------------------|------------------|-------------| 
|------------------|------------------|------------------|-------------| 
|-7--------------7-|-7--------------7-|-9--------------7-|-9-9-9-9-7---| 
|------7---7-7h9---|------7---7-7h9---|------7---7-7h9---|-----------9-| 
|------------------|------------------|------------------|-------------| 
 
 
                                                To Coda 
  ~~                 ~~                 ~~ 
             |-3-|              |-3-|              |-3-|   |--3---| |--3--| 
  Q.   E E E E E E   Q.   E E E E E E   Q.   E E E E E E   Q    Q Q Q   Q Q 
|------------------|------------------|------------------|-------------------|| 
|------------------|------------------|------------------|-------------------|| 
|-6--------------6-|-6--------------6-|-9--------------6-|-7b9--7-6----------|| 
|------7---7-7h9---|------7---7-7h9---|------7---7-7h9---|----------7--------|| 
|------------------|------------------|------------------|--------------7-5--|| 
|------------------|------------------|------------------|-------------------|| 
| 
| ~~                 ~~                 ~~ 
|            |-3-|              |-3-|              |-3-|   |--3---| |--3--| 
| Q.   E E E E E E   Q.   E E E E E E   Q.   E E E E E E   Q    Q Q E E Q Q 
|------------------|------------------|------------------|-------------------|| 
|------------------|------------------|------------------|-------------------|| 
|------------------|------------------|------------------|-------------------|| 
|-7--------------7-|-7--------------7-|-9--------------7-|-9b11-9-7----------|| 
|------7---7-7h9---|------7---7-7h9---|------7---7-7h9---|----------9s5-4-2--|| 
|------------------|------------------|------------------|-------------------|| 
 
 
 2nd Verse 
  Ab5           Cm                    Db                 Fm                 Cm7 
  H     +E  Q   E   +E  E E E  E  E E E   +H     +E  E E E   +H     +E  E E E 
|-----------------|-----4------4--------|------------------|------------2------| 
|-----------------|-----5------5--5---7-|-(7)----(7)-------|------------2---5--| 
|-2-----(2)-----6-|-(6)--------4--4---7-|-(7)----(7)-7-----|----------------4--| 
|-2-----(2)-----6-|-(6)-----6---------7-|-(7)----(7)-----4-|-(4)----(4)--------| 
|-0-----(0)-0---4-|-(4)-----4-----------|----------------4-|-(4)----(4)--------| 
|-----------------|---------------------|--------------0-2-|-(2)----(2)--------| 
| 
| H.          E E   +H        +E  E E E   +H     +E  E E E   +H     +E  E E E 
|---------------4-|-(4)-------(4)-4-----|----------------2-|-(2)----(2)-2---4--| 
|---------------5-|-(5)-------(5)-5---7-|-(7)----(7)-7---2-|-(2)----(2)-2---5--| 
|-2-------------6-|-(6)-------(6)-6---7-|-(7)----(7)-7---2-|-(2)----(2)-2---4--| 
|-2-------------6-|-(6)-------(6)-6---7-|-(7)----(7)-7---4-|-(4)----(4)-4---6--| 
|-0-------------4-|-(4)-------(4)-4---5-|-(5)----(5)-5---4-|-(4)----(4)-4---4--| 
|-----------------|---------------------|----------------2-|-(2)----(2)-2------| 
 
 
  Cm7            F7sus4              Bbm7 
  +H     +E  E E E   +Q   H        E E 
|------------4-----|------2----------2-| 
|-(5)----(5)-5-----|-----------------3-| 
|-(4)----(4)-4-----|-----------------2-| 
|----------------4-|-(4)---------------| 
|----------------4-|-(4)---------------| 
|----------------2-|-(2)--2------------| 
| 
| +H     +E  E E E   +H      +E  E E E 
|-(4)----(4)-4---2-|-(2)-----(2)-2---2-| 
|-(5)----(5)-5---2-|-(2)-----(2)-2---3-| 
|-(4)----(4)-4---4-|-(4)-----(4)-4---2-| 
|-(6)----(6)-6---2-|-(2)-----(2)-2---4-| 
|-(4)----(4)-4---4-|-(4)-----(4)-4---2-| 
|----------------2-|-(2)-----(2)-2-----| 
 
 
                 Bbm11/Eb                 Ab5 
                                |---3---| 
  +H      E  E E E    E   E E E E   +E  E E E 
|-(2)-----2--2---2-|--------------------------| 
|-(3)-----3--3---3-|--------------------------| 
|-(2)------------2-|----------2-4b6r(4)p2-----| 
|--------------4-2-|------2-4-------------4-2-| 
|------------------|--------------------------| 
|------------------|--------------------------| 
| 
| +H     +E  E E E   +H..                   E 
|-(2)----(2)-2---2-|-(2)----------------------| 
|-(3)----(3)-3---3-|-(3)----------------------| 
|-(2)----(2)-2---2-|-(2)--------------------2-| 
|-(4)----(4)-4---2-|-(2)--------------------2-| 
|-(2)----(2)-2---2-|-(2)--------------------0-| 
|----------------0-|-(0)----------------------| 
 
 
  Ab5         Cm                    Db 
  ~~ 
  Q.   Q  E E E    E  E E E  E  E E E 
|---------------|-----4------4--4-----| 
|---------------|-----5------5--5---7-| 
|-2-------2-----|-----4---6--4--4---7-| 
|------2--------|---------6---------7-| 
|-----------0---|---------4-----------| 
|---------------|---------------------| 
| 
| H.        E E   +H        +E  E E E 
|-------------4-|-(4)-------(4)-4-----| 
|-------------5-|-(5)-------(5)-5---7-| 
|-2-----------6-|-(6)-------(6)-6---7-| 
|-2-----------6-|-(6)-------(6)-6---7-| 
|-0-----------4-|-(4)-------(4)-4---5-| 
|---------------|---------------------| 
 
 
                 E/B                    Cm7 
  +H     +E  Q    E    +H       E   E E E 
|-------------------|----------------------| 
|-(7)----(7)-7---10-|-(10)-----10-------9--| 
|-(7)----(7)-7---10-|-(10)--------------9--| 
|-(7)----(7)-7---10-|-(10)----------7---9--| 
|-------------------|----------------------| 
|-------------------|----------------------| 
| 
| +H     +E  E E  E    +H      +E   E E E 
|-------------------|-------------------4--| 
|-(7)----(7)-7---10-|-(10)----(10)-10---5--| 
|-(7)----(7)-7---10-|-(10)----(10)-10---4--| 
|-(7)----(7)-7---10-|-(10)----(10)-10---6--| 
|-(5)----(5)-5------|-------------------4--| 
|-------------------|----------------------| 
 
 
                                                                D.S. al Coda 
  Cm7            Fm7                Bbm7               Bbm11/Eb           Ab5 
  +H     +E  E E E   +H     +E  E E E   +H     +E  E E E   +H     +E  E E E 
|------------------|------------2---2-|-(2)----(2)-2-----|------------2------|| 
|-(9)----(9)-9-----|------------2---3-|-(3)----(3)-3---3-|-(3)----(3)--------|| 
|-(9)----(9)-9-----|----------------2-|-(2)----(2)-----2-|-(2)----(2)--------|| 
|-(9)----(9)---x-4-|-(4)----(4)-------|----------------2-|-(2)----(2)---4-2--|| 
|--------------x-4-|-(4)----(4)-------|------------------|----------------0--|| 
|--------------x-2-|-(2)----(2)-------|------------------|-------------------|| 
| 
| +H     +E  E E E   +H     +E  E E E   +H     +E  E E E   +W 
|-(4)----(4)-4---2-|-(2)----(2)-2---2-|-(2)----(2)-2---2-|-(2)---------------|| 
|-(5)----(5)-5---2-|-(2)----(2)-2---3-|-(3)----(3)-3---3-|-(3)---------------|| 
|-(4)----(4)-4---2-|-(2)----(2)-2---2-|-(2)----(2)-2---2-|-(2)---------------|| 
|-(6)----(6)-6---2-|-(2)----(2)-2---4-|-(4)----(4)-4---2-|-(2)---------------|| 
|-(4)----(4)-4---4-|-(4)----(4)-4---2-|-(2)----(2)-2---2-|-(2)---------------|| 
|----------------2-|-(2)----(2)-2-----|----------------0-|-(0)---------------|| 
 
 
  & 
                 Dbsus4                    Db 
  |-3-| |-3-|    |-3-| |-3-| |-3-| |-3-|   |-3-| |-3-| |-3-| 
  Q Q Q Q Q Q    E E E E E E E E E E E E   E E E E E E Q Q Q 
|--------------|-3-3-3-3-3-3-3-3-3-3-3-3-|-2-2-2-2-2-2-2-2---|| 
|--------------|-3-3-3-3-3-3-3-3-3-3-3-3-|-3-3-3-3-3-3-3-3---|| 
|-7-7-7-7-6----|-2-2-2-2-2-2-2-2-2-2-2-2-|-2-2-2-2-2-2-2-2---|| 
|-----------9\-|-------------------------|-------------------|| 
|--------------|-------------------------|-----------------0-|| 
|--------------|-------------------------|-------------------|| 
| 
| |-3-| |-3-|    |-3-| |-3-| |-3-| |-3-|   |-3-| |-3-| |-3-| 
| Q Q Q Q Q Q    E E E E E E E E E E E E   E E E E E E Q Q Q 
|--------------|-3-3-3-3-3-3-3-3-3-3-3-3-|-2-2-2-2-2-2-2-2---|| 
|--------------|-3-3-3-3-3-3-3-3-3-3-3-3-|-3-3-3-3-3-3-3-3---|| 
|--------------|-2-2-2-2-2-2-2-2-2-2-2-2-|-2-2-2-2-2-2-2-2---|| 
|-9-9-9-9-7----|-------------------------|-------------------|| 
|-----------9\-|-------------------------|-----------------0-|| 
|--------------|-------------------------|-------------------|| 
 
 
 Bridge 
  Cm           Fm                 Bbm7               Bbm11/Eb           Fm 
   ~~~ 
   H.        E E   +H     +E  E E E   +H     +E  E E E   +E  E E Q  E E E 
|----------------|----------------2-|-(2)----(2)-2---2-|-(2)-2------2------| 
|----------------|----------------3-|-(3)----(3)-3---3-|-(3)-3---3--3------| 
|----------------|----------------2-|-(2)----(2)-----2-|-(2)---2-2---------| 
|----------------|------------x-x-4-|-(4)----(4)-----2-|-(2)---2-----------| 
|-/4-----------4-|-(4)----(4)-x-x-2-|-(2)----(2)-----2-|-(2)---2--------4--| 
|------------0-2-|-(2)----(2)-x-x---|--------------0-0-|-(0)----------0-2--| 
| 
|  H     E E E E   +H      E  E E E   +H     +E  E E E   +Q.     Q  E E E 
|--4-----4-4---2-|-(2)----(2)-2---2-|-(2)----(2)-2---2-|-(2)-----2--2---2--| 
|--5-----5-5---2-|-(2)----(2)-2---3-|-(3)----(3)-3---3-|-(3)-----3--3---2--| 
|--6-----6-6---2-|-(2)----(2)-2---2-|-(2)----(2)-2---2-|-(2)-----2--2---2--| 
|--6-----6-6---4-|-(4)----(4)-4---4-|-(4)----(4)-4---2-|-(2)-----2--2---4--| 
|--4-----4-4---4-|-(4)-----4--4---2-|-(2)----(2)-2---2-|-(2)-----2--2---4--| 
|--------------2-|-(2)-----2--2-----|----------------0-|-(0)-----0--0-0-2--| 
 
 
  Fm                                                 Dbsus4 
           PM--------------------------------| 
           |-3-| |-3-|    |-3--| |-3-| |-3-| |-3-|   |-3-| |-3-| |-3-| |-3-| 
  +Q   E E E E E E E E    E  E E E E E E E E E E E   E E E E E E E E E E E E 
|----------------------|---------------------------|-3-3-3-3-3-3-3-3-3-3-3-3-| 
|----------------------|---------------------------|-3-3-3-3-3-3-3-3-3-3-3-3-| 
|----------------------|---------------------------|-2-2-2-2-2-2-2-2-2-2-2-2-| 
|----------------4-4-4-|--4--4-4-----4-4-----x---0-|-------------------------| 
|-(4)--4-4-4-4-4-------|---------4-4-----4-4-x-----|-------------------------| 
|-(2)--2---------------|-----------------2-2-x-----|-------------------------| 
| 
|                                                                |-3-| |-3-| 
| +W                     +W                          H           E E E E E E 
|-(2)------------------|-(2)-----------------------|-3-----------3-3-3-3-3-3-| 
|-(2)------------------|-(2)-----------------------|-3-----------3-3-3-3-3-3-| 
|-(2)------------------|-(2)-----------------------|-2-----------2-2-2-2-2-2-| 
|-(4)------------------|-(4)-----------------------|-------------------------| 
|-(4)------------------|-(4)-----------------------|-------------------------| 
|-(2)------------------|-(2)-----------------------|-------------------------| 
 
 
  Db                    Cm          Fm 
                        ~~ 
  |--3--| |-3-| |-3-| 
  E E   E E E E Q Q Q   H.        E E 
|-2-2---2-2-2-2-2-2---|---------------| 
|-3-3---3-3-3-3-3-3---|---------------| 
|-2-2---2-2-2-2-2-2---|---------------| 
|---------------------|-6-------------| 
|-------------------0-|-4-----------4-| 
|---------------------|-----------0-2-| 
| 
|         |-3-| |-3-| 
| E   E   E E E Q Q Q   H     E E E E 
|-2---2---2-2-2-2-2-2-|-4-----4-4---2-| 
|-3---3---3-3-3-3-3-3-|-5-----5-5---2-| 
|-2---2---2-2-2-2-2-2-|-6-----6-6---2-| 
|---------------------|-6-----6-6---4-| 
|---------------------|-4-----4-4---4-| 
|---------------------|-------------2-| 
 
 
                 Bbm7        Bbm7      Bbm11/Eb 
  +H.          E E   +H        +E  E E E 
|----------------2-|-(2)-------(2)-2---2--| 
|----------------3-|-(3)-------(3)-3---3--| 
|----------------2-|-(2)-------(2)-----2--| 
|--------------x-4-|-(4)-------(4)---4-2--| 
|-(4)----------x-2-|-(2)-------(2)-----2--| 
|-(2)----------x---|-------------------0--| 
| 
| +H     +E  E E E   +E  E e Q     E E E 
|-(2)----(2)-2---2-|-(2)-2-2-5-----5-x-2--| 
|-(2)----(2)-2---3-|-(3)-3-3-3-----3-x-3--| 
|-(2)----(2)-2---2-|-(2)-2-2-2-----2-x-2--| 
|-(4)----(4)-4---4-|-(4)-4-4-4-----4-x-2--| 
|-(4)----(4)-4---2-|-(2)-2-2-2-----2-x-2--| 
|-(2)----(2)-2-----|-------------------0--| 
 
 
                               PM-------------------------------| 
                               |-3-| |-3-|    |--3--| |-3-| |-3-| 
  +H        +E  E E E   +H     E E E E E E    E   E E E E E E E E E E 
|-(2)-------(2)-------|--------------------|---------------------------|| 
|-(3)-------(3)-3-----|--------------------|---------------------------|| 
|-(2)-------(2)-------|--------------------|---------------------------|| 
|-(2)-------(2)-------|--------4-4---------|----------4-4-4-4-4-4-4----|| 
|-(2)-------(2)---0-4-|-(4)--------4-------|--4---4-4-------4-4-4-4----|| 
|-(0)-------(0)---0-2-|-(2)----------2-2-2-|----------------2-2-2-2-2/-|| 
| 
| +E  E e Q     E E E   +W                   +H..                   E 
|-(2)-2-2-2-----2---2-|-(2)----------------|-(2)-----------------------|| 
|-(3)-3-3-3-----3---2-|-(2)----------------|-(2)-----------------------|| 
|-(2)-2-2-2-----2---2-|-(2)----------------|-(2)-----------------------|| 
|-(2)-2-2-2-----2---4-|-(4)----------------|-(4)-----------------------|| 
|-(2)-2-2-2-----2---4-|-(4)----------------|-(4)--------------------0--|| 
|-(0)-0-0-0-----0-0-2-|-(2)----------------|-(2)-----------------------|| 
 
 
 3rd Verse 
  Ab5           Cm                    Db                 Fm                 Cm7 
  H     +E  Q   E   +E  E E E  E  E E E   +H     +E  E E E   +H     +E  E E E 
|-----------------|-----4------4--------|------------------|------------2------| 
|-----------------|-----5------5--5---7-|-(7)----(7)-------|------------2---5--| 
|-2-----(2)-----6-|-(6)--------4--4---7-|-(7)----(7)-7-----|----------------4--| 
|-2-----(2)-----6-|-(6)-----6---------7-|-(7)----(7)-----4-|-(4)----(4)--------| 
|-0-----(0)-0---4-|-(4)-----4-----------|----------------4-|-(4)----(4)--------| 
|-----------------|---------------------|--------------0-2-|-(2)----(2)--------| 
| 
| H.          E E   +H        +E  E E E   +H     +E  E E E   +H     +E  E E E 
|---------------4-|-(4)-------(4)-4-----|----------------2-|-(2)----(2)-2---4--| 
|---------------5-|-(5)-------(5)-5---7-|-(7)----(7)-7---2-|-(2)----(2)-2---5--| 
|-2-------------6-|-(6)-------(6)-6---7-|-(7)----(7)-7---2-|-(2)----(2)-2---4--| 
|-2-------------6-|-(6)-------(6)-6---7-|-(7)----(7)-7---4-|-(4)----(4)-4---6--| 
|-0-------------4-|-(4)-------(4)-4---5-|-(5)----(5)-5---4-|-(4)----(4)-4---4--| 
|-----------------|---------------------|----------------2-|-(2)----(2)-2------| 
 
 
  Cm7            F7sus4              Bbm7               Bbm11/Eb            Ab5 
  +H     +E  E E E   +Q   H        E E   +H      E  E E E   +H      E E E E 
|------------4-----|------2----------2-|-(2)-----2--2---2-|-(2)-----2-2------| 
|-(5)----(5)-5-----|-----------------3-|-(3)-----3--3---3-|-(3)-----3-3------| 
|-(4)----(4)-------|-----------------2-|-(2)------------2-|-(2)-----2-2---2--| 
|----------------4-|-(4)---------------|--------------4-2-|-(2)-----------2--| 
|----------------4-|-(4)---------------|------------------|---------------0--| 
|----------------2-|-(2)--2------------|------------------|------------------| 
| 
| +H     +E  E E E   +H      +E  E E E   +H     +E  E E E   +H..          E 
|-(4)----(4)-4---2-|-(2)-----(2)-2---2-|-(2)----(2)-2---2-|-(2)--------------| 
|-(5)----(5)-5---2-|-(2)-----(2)-2---3-|-(3)----(3)-3---3-|-(3)--------------| 
|-(4)----(4)-4---4-|-(4)-----(4)-4---2-|-(2)----(2)-2---2-|-(2)-----------2--| 
|-(6)----(6)-6---2-|-(2)-----(2)-2---4-|-(4)----(4)-4---2-|-(2)-----------2--| 
|-(4)----(4)-4---4-|-(4)-----(4)-4---2-|-(2)----(2)-2---2-|-(2)-----------0--| 
|----------------2-|-(2)-----(2)-2-----|----------------0-|-(0)--------------| 
 
 
  Ab5            Cm                    Db 
  +H     +E  E E E   +E  E E E  E  E E E 
|------------------|-----4---------4-----| 
|------------------|-----5------5--5---7-| 
|-(2)----(2)-----6-|-(6)--------4--4---7-| 
|-(2)----(2)-2---6-|-(6)-----6---------7-| 
|-(0)----(0)---0-4-|-(4)-----4-----------| 
|------------------|---------------------| 
| 
| +H.          E E   +H        +E  E E E 
|----------------4-|-(4)-------(4)-4-----| 
|----------------5-|-(5)-------(5)-5---7-| 
|-(2)------------6-|-(6)-------(6)-6---7-| 
|-(2)------------6-|-(6)-------(6)-6---7-| 
|-(0)------------4-|-(4)-------(4)-4---5-| 
|------------------|---------------------| 
 
 
                 E/B                     Cm7 
  +H     +E  Q    E    +H       E   E  E E 
|-------------------|-----------------------| 
|-(7)----(7)-7---10-|-(10)---------10----9--| 
|-(7)----(7)-7---10-|-(10)-----10--------9--| 
|-(7)----(7)-7---10-|-(10)-----10-----10-9--| 
|-------------------|-----------------------| 
|-------------------|-----------------------| 
| 
| +H     +E  E E  E    +H      +E   E  E E 
|-------------------|--------------------4--| 
|-(7)----(7)-7---10-|-(10)----(10)-10----5--| 
|-(7)----(7)-7---10-|-(10)----(10)-10----4--| 
|-(7)----(7)-7---10-|-(10)----(10)-10----6--| 
|-(5)----(5)-5------|--------------------4--| 
|-------------------|-----------------------| 
 
 
  Cm7             Fm7                Bbm7 
  +H     +E  Q    E   +H      E  E E E 
|-------------------|------------2-----| 
|-(9)----(9)-9\-----|---------2------7-| 
|-(9)----(9)-9\-----|----------------7-| 
|-(9)----(9)------4-|-(4)------------7-| 
|-----------------4-|-(4)--------------| 
|-----------------2-|-(2)-----2--------| 
| 
| +H     +E  E  E E   +H     +E  E E E 
|-(4)----(4)-4----2-|-(2)----(2)-2---2-| 
|-(5)----(5)-5----2-|-(2)----(2)-2---3-| 
|-(4)----(4)-4----2-|-(2)----(2)-2---2-| 
|-(6)----(6)-6----2-|-(2)----(2)-2---4-| 
|-(4)----(4)-4----4-|-(4)----(4)-4---2-| 
|-----------------2-|-(2)----(2)-2-----| 
 
 
                Bbm7Bbm11/Eb 
  +E  E  Q    E E E E   +H      +E  E E E 
|-------10------------|--------------------|| 
|-(7)-----------7-7---|-------------7------|| 
|-(7)---------------7-|-(7)-----(7)--------|| 
|-(7)-7-------7-----7-|-(7)-----(7)---4----|| 
|-------------------9-|-(9)-----(9)-----0--|| 
|---------------------|--------------------|| 
| 
| +Q     E Q.     E E   +H..            E 
|-(2)----x-5------5-2-|-(2)----------------|| 
|-(3)----x-3------3-3-|-(3)----------------|| 
|-(2)----x-2------2-2-|-(2)----------------|| 
|-(4)----x-4------4-2-|-(2)----------------|| 
|-(2)----x-2------2-2-|-(2)-------------0--|| 
|-------------------0-|-(0)----------------|| 
 
 
 Chorus 
  Ab5                    Db/F      Bb5                Db5            Ab5 
                 PM------------|                                   PM 
                 |--3--| 
  H..       E    E   E E E E E E E E   +H     +E  E E E   +H.      E E 
|-------------|----------------------|------------------|--------------| 
|-------------|----------------------|------------------|--------------| 
|-2-----------|--------------------4-|-(4)----(4)-x-x-7-|-(7)--------2-| 
|-2---------0-|--4---4-4-2---2-4---4-|-(4)----(4)-x-x-7-|-(7)--------2-| 
|-0-----------|------------4-----0-2-|-(2)----(2)-x-x-5-|-(5)------0-0-| 
|-------------|----------------------|------------------|--------------| 
| 
|                                                                  PM 
| W             +H..               E   +H.          E E   +H.      E E 
|-------------|----------------------|------------------|--------------| 
|-------------|----------------------|------------------|--------------| 
|-2-----------|-(2)----------------4-|-(4)------------7-|-(7)--------2-| 
|-2-----------|-(2)----------------4-|-(4)------------7-|-(7)--------2-| 
|-0-----------|-(0)----------------2-|-(2)------------5-|-(5)------0-0-| 
|-------------|----------------------|------------------|--------------| 
 
 
  Ab5                   Db/F     Bb5                Db5                Ab5 
  +W           +E   E a Q  E E E E   +H     +E  E E E   +H     +E  E E E 
|------------|---------------------|------------------|------------------| 
|------------|--------2h3----------|------------------|------------------| 
|-(2)--------|-(2)------2--------4-|-(4)----(4)-x-x-7-|-(7)----(7)-----2-| 
|-(2)--------|-(2)--2-2h4--2-2---4-|-(4)----(4)-x-x-7-|-(7)----(7)-----2-| 
|-(0)--------|-(0)--0----------0-2-|-(2)----(2)-x-x-5-|-(5)----(5)-0-0-0-| 
|------------|---------------------|------------------|------------------| 
| 
| +W           +H..              E   +H.          E E   +H.          E E 
|------------|---------------------|------------------|------------------| 
|------------|---------------------|------------------|------------------| 
|-(2)--------|-(2)---------------4-|-(4)------------7-|-(7)------------2-| 
|-(2)--------|-(2)---------------4-|-(4)------------7-|-(7)------------2-| 
|-(0)--------|-(0)---------------2-|-(2)------------5-|-(5)----------0-0-| 
|------------|---------------------|------------------|------------------| 
 
 
  Ab5         Fm/AbAb5             Bb5             Db5                Ab5 
  +W               +H.           E  E   +H.      E E   +Q.   E E E E  E 
|----------------|--------------------|--------------|-------------------| 
|----------------|--------------------|--------------|-------------------| 
|-(2)------------|-(2)----------------|--------------|-------------------| 
|-(2)------------|-(2)-------------/4-|-(4)--------7-|-(7)-------7----2--| 
|-(0)------------|-(0)-----------0-/2-|-(2)--------5-|-(5)---7s9---9\-0--| 
|----------------|--------------------|--------------|-------------------| 
| 
| +Q   Q  E E Q     E  e E e E e E  E   +H.      E E   +Q.   E E E E  E 
|----------------|--------------------|--------------|-------------------| 
|----------------|--------------------|--------------|-------------------| 
|-(2)--2--2-x----|--2--2-2-2-2-2-2----|--------------|----------------2--| 
|-(2)--2--2-x-4--|--2--2-2-2-2-2-2--4-|-(4)--------7-|-(7)-------7----2--| 
|-(0)--0--0-x-0--|--0--0-0-0-0-0-0--2-|-(2)--------5-|-(5)---7s9---9\-0--| 
|----------------|--------------------|--------------|-------------------| 
 
 
  Ab5                        Fm/Ab Bb5        Db5 
  +W            +H..           E   +H..       E   +W 
|-------------|------------------|--------------|--------|| 
|-------------|------------------|--------------|--------|| 
|-------------|------------------|--------------|--------|| 
|-(2)---------|-(2)------------4-|-(4)--------7-|-(7)----|| 
|-(0)---------|-(0)------------2-|-(2)--------5-|-(5)----|| 
|-------------|------------------|--------------|--------|| 
| 
| +H.      Q    +E   Q  Q  E E E   +H..       E   +W 
|-------------|------------------|--------------|--------|| 
|-------------|------------------|--------------|--------|| 
|-(2)------2--|-(2)--2--2--2-----|--------------|--------|| 
|-(2)------2--|-(2)--2--2--2-4-4-|-(4)--------7-|-(7)----|| 
|-(0)------0--|-(0)--0--0--0-0-2-|-(2)--------5-|-(5)----|| 
|-------------|------------------|--------------|--------|| 
 
 
 Interlude 
   ~~~               ~~~                        ~ 
   H.       +E  E   +W           Q.   Q.   Q    W 
|-----------------|------------|--------------|------| 
|-----------------|------------|--------------|------| 
|--9--------(9)s6-|-(6)--------|-6----7----9--|------| 
|-----------------|------------|--------------|-7----| 
|-----------------|------------|--------------|------| 
|-----------------|------------|--------------|------| 
| 
|  ~~~               ~~~                        ~ 
|  H.       +E  E    W           Q.   Q.   Q    W 
|-----------------|------------|--------------|------| 
|-----------------|------------|--------------|------| 
|-----------------|------------|--------------|------| 
|-11-------(11)s7-|--7---------|-5----7----9--|------| 
|-----------------|------------|--------------|-9----| 
|-----------------|------------|--------------|------| 
 
 
                              Db5        Eb5 
                   ~ 
  Q.   Q.   Q      W          W          W 
|--------------|------------|----------|------| 
|--------------|------------|-3--------|------| 
|-6----7----9--|------------|-2--------|-4----| 
|--------------|---7--------|-0--------|-2----| 
|--------------|------------|----------|-2----| 
|--------------|------------|----------|-0----| 
| 
|                ~~~~ 
| Q.   Q.   Q    a W          W          W 
|--------------|------------|----------|------| 
|--------------|------------|-3--------|------| 
|--------------|------------|-2--------|-4----| 
|-5----7----9--|------------|-0--------|-2----| 
|--------------|-7s9--------|----------|-2----| 
|--------------|------------|----------|-0----| 
 
 
     ~~~               ~~~                        ~ 
  a  H.       +E  E   +W           Q.   Q.   Q    W 
|-------------------|------------|--------------|------| 
|-------------------|------------|--------------|------| 
|-7s=9--------(9)s6-|-(6)--------|-6----7----9--|------| 
|-------------------|------------|--------------|-7----| 
|-------------------|------------|--------------|------| 
|-------------------|------------|--------------|------| 
| 
|    ~~~               ~~~                        ~ 
| a  H.       +E  E    W           Q.   Q.   Q    W 
|-------------------|------------|--------------|------| 
|-------------------|------------|--------------|------| 
|-------------------|------------|--------------|------| 
|-9s11-------(11)s7-|--7---------|-5----7----9--|------| 
|-------------------|------------|--------------|-9----| 
|-------------------|------------|--------------|------| 
 
 
                            Db5        Eb5 
                 ~ 
                                                  |-3-| 
  Q.   Q.   Q    W          W          H    +E  E E E E 
|--------------|----------|----------|------------------|| 
|--------------|----------|-3--------|------------------|| 
|-6----7----9--|----------|-2--------|-4----(4)-------6-|| 
|--------------|-7--------|-0--------|-2----(2)-7-7h9---|| 
|--------------|----------|----------|-2----(2)---------|| 
|--------------|----------|----------|-0----(0)---------|| 
| 
|                ~ 
|                                                 |-3-| 
| Q.   Q.   Q    W          W          H    +E  E E E E 
|--------------|----------|----------|------------------|| 
|--------------|----------|-3--------|------------------|| 
|--------------|----------|-2--------|-4----(4)---------|| 
|-5----7----9--|----------|-0--------|-2----(2)-------7-|| 
|--------------|-9--------|----------|-2----(2)-7-7h9---|| 
|--------------|----------|----------|-0----(0)---------|| 
 
 
 Outro 
  ~~                 ~~                 ~~ 
             |-3-|              |-3-|              |-3-|   |-3-| |-3-| 
  Q.   E E E E E E   Q.   E E E E E E   Q.   E E E E E E   Q Q Q Q Q Q 
|------------------|------------------|------------------|-------------| 
|------------------|------------------|------------------|-------------| 
|-6--------------6-|-6--------------6-|-9--------------6-|-7-7-7-7-6---| 
|------7---7-7h9---|------7---7-7h9---|------7---7-7h9---|-----------9-| 
|------------------|------------------|------------------|-------------| 
|------------------|------------------|------------------|-------------| 
| 
| ~~                 ~~                 ~~ 
|            |-3-|              |-3-|              |-3-|   |-3-| |-3-| 
| Q.   E E E E E E   Q.   E E E E E E   Q.   E E E E E E   Q Q Q Q Q Q 
|------------------|------------------|------------------|-------------| 
|------------------|------------------|------------------|-------------| 
|------------------|------------------|------------------|-------------| 
|-7--------------7-|-7--------------7-|-9--------------7-|-9-9-9-9-7---| 
|------7---7-7h9---|------7---7-7h9---|------7---7-7h9---|-----------9-| 
|------------------|------------------|------------------|-------------| 
| 
| Gtr III 
|                                                                |-3-| 
| W                  W                  W                  H     Q Q Q 
|------------------|------------------|------------------|-------------| 
|------------------|------------------|------------------|-------------| 
|------------------|------------------|------------------|-------------| 
|------------------|------------------|------------------|---------2h4-| 
|------------------|------------------|------------------|-------------| 
|------------------|------------------|------------------|-------------| 
 
 
  ~~                 ~~                 ~~ 
             |-3-|              |-3-|              |-3-|   |-3-| |-3-| 
  Q.   E E E E E E   Q.   E E E E E E   Q.   E E E E E E   Q Q Q Q Q Q 
|------------------|------------------|------------------|-------------| 
|------------------|------------------|------------------|-------------| 
|-6--------------6-|-6--------------6-|-9--------------6-|-7-7-7-7-6---| 
|------7---7-7h9---|------7---7-7h9---|------7---7-7h9---|-----------9-| 
|------------------|------------------|------------------|-------------| 
|------------------|------------------|------------------|-------------| 
| 
| ~~                 ~~                 ~~ 
|            |-3-|              |-3-|              |-3-|   |-3-| |-3-| 
| Q.   E E E E E E   Q.   E E E E E E   Q.   E E E E E E   Q Q Q Q Q Q 
|------------------|------------------|------------------|-------------| 
|------------------|------------------|------------------|-------------| 
|------------------|------------------|------------------|-------------| 
|-7--------------7-|-7--------------7-|-9--------------7-|-9-9-9-9-7---| 
|------7---7-7h9---|------7---7-7h9---|------7---7-7h9---|-----------9-| 
|------------------|------------------|------------------|-------------| 
| 
| ~~                 ~~                 ~~ 
|            |-3-|              |-3-|              |-3-|   |-3-| |-3-| 
| Q.   E E E E E E   Q.   E E E E E E   Q.   E E E E E E   Q Q Q Q Q Q 
|------------------|------------------|------------------|-------------| 
|------------------|------------------|------------------|-------------| 
|-2--------------2-|-2--------------2-|-4--------------2-|-4-4-4-4-2---| 
|----------2-2h4---|----------2-2h4---|----------2-2h4---|-----------4-| 
|------0-----------|------0-----------|------0-----------|-------------| 
|------------------|------------------|------------------|-------------| 
 
 
  ~~                 ~~                 ~~ 
             |-3-|              |-3-|              |-3-|   |-3-| |-3-| 
  Q.   E E E E E E   Q.   E E E E E E   Q.   E E E E E E   Q Q Q Q Q Q 
|------------------|------------------|------------------|-------------| 
|------------------|------------------|------------------|-------------| 
|-6--------------6-|-6--------------6-|-9--------------6-|-7-7-7-7-6---| 
|------7---7-7h9---|------7---7-7h9---|------7---7-7h9---|-----------9-| 
|------0-----------|------0-----------|------0-----------|-------------| 
|------------------|------------------|------------------|-------------| 
| 
| ~~                 ~~                 ~~ 
|            |-3-|              |-3-|              |-3-|   |-3-| |-3-| 
| Q.   E E E E E E   Q.   E E E E E E   Q.   E E E E E E   Q Q Q Q Q Q 
|------------------|------------------|------------------|-------------| 
|------------------|------------------|------------------|-------------| 
|------------------|------------------|------------------|-------------| 
|-7--------------7-|-7--------------7-|-9--------------7-|-9-9-9-9-7---| 
|------7---7-7h9---|------7---7-7h9---|------7---7-7h9---|-----------9-| 
|------------------|------------------|------------------|-------------| 
| 
| ~~                 ~~                 ~~ 
|            |-3-|              |-3-|              |-3-|   |-3-| |-3-| 
| Q.   E E E E E E   Q.   E E E E E E   Q.   E E E E E E   Q Q Q Q Q Q 
|------------------|------------------|-5----------------|-------------| 
|-5--------------5-|-5--------------5-|----------------5-|-7-7-7-7-5---| 
|------6---6-6h7---|------6---6-6h7---|------6---6-6h7---|-----------7-| 
|------------------|------------------|------------------|-------------| 
|------------------|------------------|------------------|-------------| 
|------------------|------------------|------------------|-------------| 
 
 
   ~~~                   ~~~ 
              |--3--|               |--3--| 
   Q.   E E E E  E  E    Q.   E E E E  E  E 
|---------------------|---------------------| 
|---------------------|---------------------| 
|--6----------------6-|--6----------------6-| 
|-------7---7-7h=9----|-------7---7-7h=9----| 
|-------0-------------|-------0-------------| 
|---------------------|---------------------| 
| 
|  ~~~                   ~~~ 
|             |--3--|               |--3--| 
|  Q.   E E E E  E  E    Q.   E E E E  E  E 
|---------------------|---------------------| 
|-10---------------10-|-10---------------10-| 
|-------9---9-9h11----|-------9---9-9h11----| 
|--7----------------7-|--7----------------7-| 
|-------7---7-7h=9----|-------7---7-7h=9----| 
|---------------------|---------------------| 
| 
|  ~~~                   ~~~ 
|             |--3--|               |--3--| 
|  Q.   E E E E  E  E    Q.   E E E E  E  E 
|---------------------|---------------------| 
|--5----------------5-|--5----------------5-| 
|-------6---6-6h=7----|-------6---6-6h=7----| 
|---------------------|---------------------| 
|---------------------|---------------------| 
|---------------------|---------------------| 
 
 
  ~~ 
             |--3--|    |--3--|  |--3--| 
  Q.   E E E E  E  E    Q  Q  Q  Q  Q  Q 
|--------------------|-------------------| 
|--------------------|-------------------| 
|-9----------------6-|--7--7--7--7--6----| 
|------7---7-7h=9----|-----------------9-| 
|------0-------------|-------------------| 
|--------------------|-------------------| 
| 
| ~~ 
|            |--3--|    |--3--|  |--3--| 
| Q.   E E E E  E  E    Q  Q  Q  Q  Q  Q 
|-9------------------|-------------------| 
|-----------------10-|-12-12-12-12-10----| 
|------9---9-9h11----|----------------11-| 
|-9----------------7-|--9--9--9--9--7----| 
|------7---7-7h=9----|-----------------9-| 
|--------------------|-------------------| 
| 
| ~~ 
|            |--3--|    |--3--|  |--3--| 
| Q.   E E E E  E  E    Q  Q  Q  Q  Q  Q 
|-5------------------|-------------------| 
|------------------5-|--7--7--7--7--5----| 
|------6---6-6h=7----|--4--------------7-| 
|--------------------|-------------------| 
|--------------------|-------------------| 
|--------------------|-------------------| 
 
 
   ~~~                      ~~~ 
                 |--3--|                  |--3--| 
   Q.    E E  E  E  E  E    Q.    E E  E  E  E  E 
|------------------------|------------------------| 
|-14------------------14-|-14------------------14-| 
|--6----14---14-14h16--6-|--6----14---14-14h16--6-| 
|--------7----7--7h=9----|--------7----7--7h=9----| 
|--------0---------------|--------0---------------| 
|------------------------|------------------------| 
| 
|  ~~~                      ~~~ 
|                |--3--|                  |--3--| 
|  Q.    E E  E  E  E  E    Q.    E E  E  E  E  E 
|------------------------|------------------------| 
|-10------------------10-|-10------------------10-| 
|--------9----9--9h11----|--------9----9--9h11----| 
|--7-------------------7-|--7-------------------7-| 
|--------7----7--7h=9----|--------7----7--7h=9----| 
|------------------------|------------------------| 
| 
|  ~~~                      ~~~ 
|                |--3--|                  |--3--| 
|  Q.    E E  E  E  E  E    Q.    E E  E  E  E  E 
|------------------------|------------------------| 
|--5-------------------5-|--5-------------------5-| 
|--------6----6--6h=7----|--------6----6--6h=7----| 
|------------------------|------------------------| 
|------------------------|------------------------| 
|------------------------|------------------------| 
 
 
   ~~~ 
                 |--3--|    |--3--|  |--3--| 
   Q.    E E  E  E  E  E    Q  Q  Q  Q  Q  Q 
|------------------------|-------------------| 
|-17------------------14-|-15-15-15-15-14----| 
|--6----14---14-14h16--6-|--7--7--7--7--6-16-| 
|--------7----7--7h=9----|-----------------9-| 
|--------0---------------|-------------------| 
|------------------------|-------------------| 
| 
|  ~~~ 
|                |--3--|    |--3--|  |--3--| 
|  Q.    E E  E  E  E  E    Q  Q  Q  Q  Q  Q 
|--9---------------------|-------------------| 
|---------------------10-|-12-12-12-12-10----| 
|--------9----9--9h11----|----------------11-| 
|--9-------------------7-|--9--9--9--9--7----| 
|--------7----7--7h=9----|-----------------9-| 
|------------------------|-------------------| 
| 
|  ~~~ 
|                |--3--|    |--3--|  |--3--| 
|  Q.    E E  E  E  E  E    Q  Q  Q  Q  Q  Q 
|--5---------------------|-------------------| 
|----------------------5-|--7--7--7--7--5----| 
|--------6----6--6h=7----|--4--------------7-| 
|------------------------|-------------------| 
|------------------------|-------------------| 
|------------------------|-------------------| 
 
 
   ~~~                      ~~~ 
                 |--3--|                  |--3--| 
   Q.    E E  E  E  E  E    Q.    E E  E  E  E  E 
|------------------------|------------------------| 
|-14------------------14-|-14------------------14-| 
|--6----14---14-14h16--6-|--6----14---14-14h16--6-| 
|--------7----7--7h=9----|--------7----7--7h=9----| 
|--------0---------------|--------0---------------| 
|------------------------|------------------------| 
| 
|  ~~~                      ~~~ 
|                |--3--|                  |--3--| 
|  Q.    E E  E  E  E  E    Q.    E E  E  E  E  E 
|------------------------|------------------------| 
|-10------------------10-|-10------------------10-| 
|--------9----9--9h11----|--------9----9--9h11----| 
|--7-------------------7-|--7-------------------7-| 
|--------7----7--7h=9----|--------7----7--7h=9----| 
|------------------------|------------------------| 
| 
|  ~~~                      ~~~ 
|                |--3--|                  |--3--| 
|  Q.    E E  E  E  E  E    Q.    E E  E  E  E  E 
|------------------------|------------------------| 
|-17------------------17-|-17------------------17-| 
|-------18---18-18h19----|-------18---18-18h19----| 
|------------------------|------------------------| 
|------------------------|------------------------| 
|------------------------|------------------------| 
 
 
   ~~~ 
                 |--3--|    |----3----|  |--3---| 
   Q.    E E  E  E  E  E    Q      Q  Q  Q  Q   Q 
|------------------------|------------------------| 
|-17------------------14-|-15-----15-15-15-14-----| 
|--6----14---14-14h16--6-|--7------7--7--7--6--16-| 
|--------7----7--7h=9----|----------------------9-| 
|--------0---------------|------------------------| 
|------------------------|------------------------| 
| 
|  ~~~ 
|                |--3--|    |----3----|  |--3---| 
|  Q.    E E  E  E  E  E    Q      Q  Q  Q  Q   Q 
|--9---------------------|------------------------| 
|---------------------10-|-12-----12-12-12-10-----| 
|--------9----9--9h11----|---------------------11-| 
|--9-------------------7-|--9------9--9--9--7-----| 
|--------7----7--7h=9----|----------------------9-| 
|------------------------|------------------------| 
| 
|  ~~~ 
|                |--3--|    |----3----|  |--3---| 
|  Q.    E E  E  E  E  E    Q      Q  Q  Q  Q   Q 
|-17---------------------|------------------------| 
|---------------------17-|-17b19==17-17-17-17r----| 
|-------18---18-18h19----|---------------------19-| 
|------------------------|------------------------| 
|------------------------|------------------------| 
|------------------------|------------------------| 
 
 
   ~~~                      ~~~ 
                 |--3--|                  |--3--| 
   Q.    E E  E  E  E  E    Q.    E E  E  E  E  E 
|------------------------|------------------------| 
|-14------------------14-|-14------------------14-| 
|--6----14---14-14h16--6-|--6----14---14-14h16--6-| 
|--------7----7--7h=9----|--------7----7--7h=9----| 
|--------0---------------|--------0---------------| 
|------------------------|------------------------| 
| 
|  ~~~                      ~~~ 
|                |--3--|                  |--3--| 
|  Q.    E E  E  E  E  E    Q.    E E  E  E  E  E 
|------------------------|------------------------| 
|-10------------------10-|-10------------------10-| 
|--------9----9--9h11----|--------9----9--9h11----| 
|--7-------------------7-|--7-------------------7-| 
|--------7----7--7h=9----|--------7----7--7h=9----| 
|------------------------|------------------------| 
| 
|  ~~~                      ~~~ 
|                |--3--|                  |--3--| 
|  Q.    E E  E  E  E  E    Q.    E E  E  E  E  E 
|------------------------|------------------------| 
|-17------------------17-|-17------------------17-| 
|-------18---18-18h19----|-------18---18-18h19----| 
|------------------------|------------------------| 
|------------------------|------------------------| 
|------------------------|------------------------| 
 
 
   ~~~ 
                 |--3--|    |----3----|  |--3---| 
   Q.    E E  E  E  E  E    Q      Q  Q  Q  Q   Q 
|------------------------|------------------------*| 
|-17------------------14-|-15-----15-15-15-14-----*| 
|--6----14---14-14h16--6-|--7------7--7--7--6--16-*| 
|--------7----7--7h=9----|----------------------9-*| 
|--------0---------------|------------------------*| 
|------------------------|------------------------*| 
| 
|  ~~~ 
|                |--3--|    |----3----|  |--3---| 
|  Q.    E E  E  E  E  E    Q      Q  Q  Q  Q   Q 
|--9---------------------|------------------------*| 
|---------------------10-|-12-----12-12-12-10-----*| 
|--------9----9--9h11----|---------------------11-*| 
|--9-------------------7-|--9------9--9--9--7-----*| 
|--------7----7--7h=9----|----------------------9-*| 
|------------------------|------------------------*| 
| 
|  ~~~ 
|                |--3--|    |----3----|  |--3---| 
|  Q.    E E  E  E  E  E    Q      Q  Q  Q  Q   Q 
|-17---------------------|------------------------*| 
|---------------------17-|-17b19==17-17-17-17r----*| 
|-------18---18-18h19----|---------------------19-*| 
|------------------------|------------------------*| 
|------------------------|------------------------*| 
|------------------------|------------------------*| 
 
_______________________________________________________ 
Contribuição: Demetrio Ferreira Czmyr([email protected]) 

roll up this ad to continue

share this page

See Also: