E-Chords
Thin Lizzy

Are You Ready (Live)(Tabs)

Thin Lizzy

Key: Eb
Tune: Eb 
 
 
Intro              X3 
|-------|------------|-----------| 
|-------|------------|-----------| 
|-------|.----------.|-----------| 
|-------|.7----7--5-.|-7---------| 
|-----3-|-7----5--3--|-7-------3-| 
|-3-5---|-5----------|-5---3-5---| 
 
 
Verse:     X4                                                  (2 Gtr riff) 
|------------|------------|---------|------------|------------|-----------------|-------| 
|------------|------------|---------|------------|------------|-----------------|-------| 
|.----------.|------------|---------|------------|------------|-----------------|-------| 
|.7----7--5-.|-7----5--7--|-7----5--|------7--5--|------5--7--|-7-5---5---------|-------| 
|-7----5--3--|-5----3--5--|-5----3--|-7----5--3--|-7----3--5--|-5-3-7-3-7-5--7--|-----3-| 
|-5----------|------------|---------|-5----------|-5----------|-----5---5-3--5--|-3-5---| 
 
 
Outro:     X4                                                  (2 Gtr riff) 
|------------|------------|---------|------------|------------|-----------------| 
|------------|------------|---------|------------|------------|-----------------| 
|.-----4--2-.|-4----2--4--|-4----2--|------4--2--|------2--4--|-4-2---2---------| 
|.4----2--0-.|-2----0--2--|-2----0--|-4----2--0--|-4----0--2--|-2-0-4-0-4-2--4--| 
|-2----------|------------|---------|-2----------|-2----------|-----2---2-0--2--| 
|------------|------------|---------|------------|------------|-----------------| 

roll up this ad to continue

share this page

See Also: