E-Chords
The Weather Station

Came So Easy(Tabs)

The Weather Station

 Intro + Verse 
E|----------------------------------------------------------------------------------| 
B|----------------------------------------------------------------------------------| 
G|-------0------0-------0-----2-----2----0--2-----2---------------------------------| 
D|------0------0-------0------0---0------0--0---0-----------------------------------| 
A|---0h2----0h2-----0h2------------0--0h2--------0----------------------------------| 
D|---------------------------0---0---------0---0------------------------------------| 

 Chorus 
E|----------------------------------------------------------------------------------| 
B|----------------------------------------------------------------------------------| 
G|-----6------6---6-----4----4---4----4---0----0---0----2-----2----2-----2----------| 
D|----------0--------------0--------0--------0--------------0----------0------------| 
A|-----7-----7----7-----5---5----5---5----2---2----5----0----0-----0----0-----------| 
D|---7----7-----7-----5---5----5---5-----2--2----5----0----0-----0----0-------------| 

roll up this ad to continue

share this page

See Also: