E-Chords
The Used

Taste Of Ink(Tabs)

The Used

roll up this ad to continue

Taste of Ink 
The Used 
By: SMWBASEBALLA18 
FOSHO!! 
 
 
E----------------------------------------------------------------| 
B----------------------------------------------------------------| 
G----7--7----------------------------------------7---------------| 
D----x--x--10--9--/--12--12--10--9---7--7--5--5--10--------------| 
A----7--7--7---7--/--10--10--10--10--5--5--5--5--0--9--9--9------| 
D----7--7--7---7--/--10--10--10--10--5--5--5--5--0--0--0--0------| 
 
 
Verse:1st time clean, 2nd time distortion 
E----------------------------------------------------------------| 
B----------------------------------------------------------------| 
G----7--7----------------------------------------7---------------| 
D----x--x--10--9--/--12--12--10--9---7--7--5--5--10--------------| (3x) 
A----7--7--7---7--/--10--10--10--10--5--5--5--5--0--9--9--9------| 
D----7--7--7---7--/--10--10--10--10--5--5--5--5--0--0--0--0------| 
 
Pre-Chorus: distortion 
E----------------------------------------------------------------| 
B----------------------------------------------------------------| 
G----12?-12--12--12--12--12--------------------------------------| 
D----12?-12--12--12?-12--12--------------------------------------| 
A----10?-10--10--10--10--10--------------------------------------| 
D----------------------------------------------------------------| 
 
Chorus: distortion 
E----------------------------------------------------------------| 
B----------------------------------------------------------------| 
G----5?-5--5--5--------------------------------------------------| 
D----5--5?-5--5--0--0--0--0?-7--7?-7?-7h9--10--10?-10?-10--xxxxxx| (2x) 
A----5--5--5--5--0--0--0--0?-7--7?-7?-7h9--10--10?-10?-10--xxxxxx| 
D----5--5--5--5?-0--0--0--0?-7--7?-7?-7h9--10--10--10--10--xxxxxx| 
 
Bridge: distortion 
E----------------------------------------------------------------| 
B----------------------------------------------------------------| 
G-----7--7--------0-----------------0-------0--------------------| 
D-----9--9------9---9----9-/-----12-----12----12-----------------| 
A----10--9---12-------12---/--15---------------------------------| 
D----------------------------------------------------------------| 
 
E----------------------------------------------------------------| 
B----------------------------------------------------------------| 
G-12?-12--12/--14?-14--14/--12?-12--12/--17?-17--17/--16--16?-16-| 
D-x---x---x----x---x---x----x---x---x----x---x---x----x---x---x--| 
A-10?-10--10/--12?-12--12/--10?-10--10/--15?-15--15/--14--14?-14-| 
D----------------------------------------------------------------| 
 
 
Verse: distortion 
E----------------------------------------------------------------| 
B----------------------------------------------------------------| 
G----7--7----------------------------------------7---------------| 
D----x--x--10--9--/--12--12--10--9---7--7--5--5--10--------------| (2x) 
A----7--7--7---7--/--10--10--10--10--5--5--5--5--0--9--9--9------| 
D----7--7--7---7--/--10--10--10--10--5--5--5--5--0--0--0--0------| 
 
Chorus: distortion 
E----------------------------------------------------------------| 
B----------------------------------------------------------------| 
G----5?-5--5--5--------------------------------------------------| 
D----5--5?-5--5--0--0--0--0?-7--7?-7?-7h9--10--10?-10?-10--xxxxxx| (2x) 
A----5--5--5--5--0--0--0--0?-7--7?-7?-7h9--10--10?-10?-10--xxxxxx| 
D----5--5--5--5?-0--0--0--0?-7--7?-7?-7h9--10--10--10--10--xxxxxx| 
 
Verse: distortion, then fade out at the end 
E----------------------------------------------------------------| 
B----------------------------------------------------------------| 
G----7--7----------------------------------------7---------------| 
D----x--x--10--9--/--12--12--10--9---7--7--5--5--10--------------| (3x) 
A----7--7--7---7--/--10--10--10--10--5--5--5--5--0--9--9--9------| 
D----7--7--7---7--/--10--10--10--10--5--5--5--5--0--0--0--0------| 
 
e-mail me if anything is wrong 
i think its about 98% right 
[email protected] 
 
share this page

See Also: