E-Chords
The Used

Burning Down The House(Tabs)

The Used

roll up this ad to continue

DRUM INTRO 
e|----------------------------| 
b|----------------------------| 
g|-12-14-15-14-12-12-10-12----| 
D|----------------------------| 
A|----------------------------| 
E|----------------------------| 

Verse 
e|------------|--------------|---------------| 
b|------------|--------------|---------------| 
g|------------|--------------|----2--2-------| 
D|---5---5\3--|---3/5--------|----2--2--3----| 
A|---5---5\3--|---3/5--------|----0--0--3----| 
E|---3---3\1--|---1/3--------|----------1----| 

Chorus 
e|----------|---------|---------|---------------| 
b|----------|---------|---------|---------------| 
g|----------|---------|---------|---------------| 
D|--5-5-5-5-|-5-5-5-5-|-3-3-3-3-|-3-3-3-3-------| 
A|--5-5-5-5-|-5-5-5-5-|-3-3-3-3-|-3-3-3-3--x3---| 
E|--3-3-3-3-|-3-5-3-3-|-1-1-1-1-|-1-1-1-1-------| 


************************************ 

| /  Slide up 
| \  Slide down 
| x  Dead note 

************************************ 
share this page

See Also: