E-Chords
The Trews

Age Of Miracles(Tabs)

The Trews

roll up this ad to continue

Key: G
Tuning: Standard 

e|------------------------| 
B|------------------------| 
G|-2-0--------------------| 
D|-------3-2---0----------| 
A|---------------3---2-0--| 
E|------------------------| 

Probably not 100% accurate, but you'll get the feeling of it. 

e|--------------------------|----(1st-2nd 3rd)-----|----(4th)----------------| 
B|-0-h3-3-3----5p-3---3-3---|-1-----------1-3-1----|-1-----------------------| 
G|----------0-------------0-|------0---------------|------0------------------| 
D|--------------------------|----------------------|----------0--------------| 
A|--------------------------|-0-h3-3--0-h3--3-3----|-0-h3-3-----3---2-0------| 
E|-3----3----3------3-------|----------------------|-------------------------| 

(Verse) 
  G                             C 
  Wishing my whole life away ...waiting for the day 
  G                          C 
  Transcendental disarray ...waiting for the day 

  G                                     C 
  Always close but never quite there ...waiting for the day 
  G                                          C 
  Happier endings, they must be out there ...waiting for the day 

  G                                 C 
  Swear I'll get my shit together...waiting for the day 
  G                                   C 
  A day's grace, a three day bender...waiting for the day 


  I'll never be the be all end all... 
  But that opinion counts for fuck all... 

(Chorus) 
  e|-----------------------|-----------------------| 
  B|----3------------------|-----------------------| 
  G|----0--------0---------|-2-0-------------------| 
  D|----0------0-----------|------3-2--0-----------| 
  A|----x--0-2-------------|-------------3--2-0----| 
  E|-3--3------------------|-----------------------| 

  OK take it away           Living in the age of miracles 
  Got science, got faith    Living in the age of miracles 
  Met a girl, metaphysical  Living in the age of miracles 
  Living in the age of miracles 

(Verse) 

  G                                 C    
  Speaking for the rank and file ...waiting for the day 
  G                          C 
  We are royalty in exile ...waiting for the day 

  G                                         C 
  You can waste some damn good champagne ...waiting for the day 
  G                                     C 
  Talk a good game. Still you remain ...waiting for the day 

(Chorus) 
  e|-----------------------|-----------------------| 
  B|----3------------------|-----------------------| 
  G|----0--------0---------|-2-0-------------------| 
  D|----0------0-----------|------3-2--0-----------| 
  A|----x--0-2-------------|-------------3--2-0----| 
  E|-3--3------------------|-----------------------| 

  OK take it away           Living in the age of miracles 
  Got science, got faith    Living in the age of miracles 
  Met a girl, metaphysical  Living in the age of miracles 
  Living in the age of miracles 

(Bridge) 
  F C F C 
  Aaaaaahhhhhhh 

  With something similar to this 
  e|-------------|----------|-------------|------------| 
  B|-10-------10-|-8------8-|-------------|------------| 
  G|----10--10---|---9--9---|-10-------10-|-9--------9-| 
  D|------10-----|----10----|----10-10----|----10-10---| 
  A|-8--------8--|-8------8-|-8----8---8--|-8----8---8-| 
  E|-------------|----------|-------------|------------| 

  e|-------------|--------------|------------|----------| 
  B|-8---------8-|--------------|------------|----------| 
  G|-------------|-10--------10-|-9--------9-|-7------7-| 
  D|----10--10---|----10--10----|---10--10---|---9--9---| 
  A|------10-----|------10------|-----10-----|----10----| 
  E|-8---------8-|-8---------8--|-8--------8-|-8------8-| 

  When I fail to conjure the enthusiasm that I possessed, 
   
  In my younger days just understand that I am overwhelmed by 
   
  e|-------------------------| 
  B|-------------------------| 
  G|-2--0--------------------| 
  D|--------3-2---0----------| 
  A|----------------3---2-0--| 
  E|-------------------------| 

  Living in the age of miracles... 

(Chorus) 
  e|-----------------------------|-----------------------| 
  B|----3------------------------|-----------------------| 
  G|----0--------0---------------|-2-0-------------------| 
  D|----0------0-----------------|------3-2--0-----------| 
  A|----x--0-2-------------------|-------------3--2-0----| 
  E|-3--3------------------------|-----------------------| 

  OK take it away                 Living in the age of miracles 
  Got science, got faith          Living in the age of miracles 
  It's Superficial, Supernatural  Living in the age of miracles 
  Living in the age of miracles 

  OK take it away                 Living in the age of miracles 
  Got science, got faith          Living in the age of miracles 
  Met a girl, metaphysical        Living in the age of miracles 
  Living in the age of miracles 

(Ending) 
  e|------------------------| 
  B|------------------------| 
  G|-2-0--------------------| 
  D|-------3-2---0----------|  x 3 + G 
  A|---------------3---2-0--| 
  E|------------------------| 


Thanks for wathing my tab, Please rate and comment if correction needed 
share this page

See Also: