E-Chords
The Stone Roses

All For One(Tabs)

The Stone Roses

roll up this ad to continue

Key: G
Intro + Main Guitar riff 

e|-----------------------------| 
B|----8-6---6-5----------------| 
G|-5/7-7--\5-5---7-7-4h5h7-----|    x4 
D|-----------------------------| 
A|-----------------------------| 
E|-----------------------------| 


After playing that x4 there is a slight change to this: 
e|----------------------------------| 
B|----8-6---6-5---------------------| 
G|-5/7-7--\5-5----4h5h7--5-4--------|    
D|---------------------------5~~~---| 
A|----------------------------------| 
E|----------------------------------| 

Chord Progression for Chorus is then G Bb C G (all barre chords) 

e|--3-------6------8-----3-----------| 
B|--3-------6------8-----3-----------| 
G|--4-------7------9-----4-----------| 
D|--5-------8------10----5-----------| 
A|--5-------8------10----5-----------| 
E|--3-------6------8-----3-----------| 

Solo (not 100% but close enough) 


E|-----------------------------------------------------------------------------------------------| 
B|-----------------------------------------------------------------------------------------------| 
G|---5b7-7-7br5p3-5--3--5--3--5p3--5b7--5--3--5--3------------------------------3--5b7br5p3------| 
D|-------------------------------------------------5----3h5p3-----------3--5----------------5~~--| 
A|------------------------------------------------------------3--1-------------------------------| 
E|----------------------------------------------------------------3~~----------------------------| 



e|---------------------------------------------------------------------------------------------| 
B|--------------------------------------------------------18b20br18--15------------------------| 
G|-------15-17-17~~-----15-17-17b19-17b19br17p15--17~~------------------17--15-17-15-----------| 
D|--15/17----------15/17------------------------17------------------------------------17~~-----| 
A|---------------------------------------------------------------------------------------------| 
E|---------------------------------------------------------------------------------------------| 

e|-----------------------------------------------| 
B|------3----------------------------------------| 
G|---5b7br5p3---3-5~~----------------------------| 
D|------------5---------5p3----------------------| 
A|--------------------------5-3--1---------------| 
E|---------------------------------3~~~~---------|                                                       
 
share this page

See Also: