E-Chords
The Spotnicks

Orange Blossom Special(Tabs)

The Spotnicks

Intro: 
G|--------------------------------------------------------| 
D|--------------------------------------------------------| 
A|-7---5--7---5--7---5--7---5--7---5--7---5--7---5--7---5-| 
E|---7------7------7------7------7------7------7------7---| 

G|--------------------------------------------------------| 
D|----------------------------------------------------5-6-| 
A|-7---5--7---5--7---5--7---5--7---5--7---5--7---5--7-----| 
E|---7------7------7------7------7------7------7----------| 

verse 1: 
G|------------------------5-6-7---5--7-------------------------------| 
D|-7---5--7---5--7---5--7-------7-------------------5-6-7---5--7---5-| 
A|---7------7------7-------------------5-6-7---5--7-------7------7---| 
E|-------------------------------------------7-----------------------| 

G|----------5-6-7---5-7-----------------------------------------------| 
D|-7---5--7-------7-----------------5-6-7---5--7---5--7---5--7---5--7-| 
A|---7------------------5-6-7---5-7-------7------7------7------7------| 
E|----------------------------7---------------------------------------| 

G|-------------------------------------------------------5-6-7---| 
D|-----------------------------------5-6-7---5--7---5--7-------7-| 
A|-5-6-7---5--7---5--7---5--7---5--7-------7------7--------------| 
E|-------7------7------7------7----------------------------------| 

G|----------------------| 
D|-0--2--3--4---2--0--7-| 
A|----------------------| 
E|----------------------| 

Bridge 1: 
G|--------------------------------------------------------| 
D|--------------------------------------------------------| 
A|-7---5--7---5--7---5--7---5--7---5--7---5--7---5--7---5-| 
E|---7------7------7------7------7------7------7------7---| 

G|--------------------------------------------------------| 
D|----------------------------------------------------5-6-| 
A|-7---5--7---5--7---5--7---5--7---5--7---5--7---5--7-----| 
E|---7------7------7------7------7------7------7----------| 

verse 2: 
G|----------5-6-7---5--7-----------------------------------------| 
D|-7---5--7-------7-------------------5-6-7---5--7---5--7---5--7-| 
A|---7-------------------5-6-7---5--7-------7------7------7------| 
E|-----------------------------7---------------------------------| 

G|-5-6-7---5-7----------------------------------------| 
D|-------7-----------------5-6-7---5--7---5--7---5--7-| 
A--------------5-6-7---5-7-------7------7------7------| 
E|--------------------7-------------------------------| 

G|----------------------------------------------------------5-6-7---| 
D|-----------------------------------5-6-7---5--7---5--7--7-------7-| 
A|-5-6-7---5--7---5--7---5--7---5--7-------7------7-----------------| 
E|-------7------7------7------7-------------------------------------| 

G|----------------------| 
D|-0--2--3--4---2--0--7-| 
A|----------------------| 
E|----------------------| 

Bridge 2: 
G|--------------------------------------------------------| 
D|----------------------------------------------------5-6-| 
A|-7---5--7---5--7---5--7---5--7---5--7---5--7---5--7-----| 
E|---7------7------7------7------7------7------7----------| 

verse 3: 
G|------------------------5-6-7---5--7-------------------------------| 
D|-7---5--7---5--7---5--7-------7-------------------5-6-7---5--7---5-| 
A|---7------7------7-------------------5-6-7---5--7-------7------7---| 
E|-------------------------------------------7-----------------------| 

G|----------5-6-7---5-7-----------------------------------------------| 
D|-7---5--7-------7-----------------5-6-7---5--7---5--7---5--7---5--7-| 
A|---7------------------5-6-7---5-7-------7------7------7------7------| 
E|----------------------------7---------------------------------------| 

G|-------------------------------------------------------5-6-7---| 
D|-----------------------------------5-6-7---5--7---5--7-------7-| 
A|-5-6-7---5--7---5--7---5--7---5--7-------7------7--------------| 
E|-------7------7------7------7----------------------------------| 

G|----------------------| 
D|-0--2--3--4---2--0--7-| 
A|----------------------| 
E|----------------------| 

Outro: 
G|--------------------------------------------------------| 
D|----------------------------------------------------5-6-| 
A|-7---5--7---5--7---5--7---5--7---5--7---5--7---5--7-----| 
E|---7------7------7------7------7------7------7----------| 

                    (END) 
G|----------------------| 
D|-7-7-------------7--7-| 
A|------------7--7------| 
E|------7--7------------|

roll up this ad to continue

share this page

See Also: