E-Chords
The Special Goodness

Whatever's Going On(Tabs)

The Special Goodness

Intro / Verse riff 
|--2--2-2----------------------- 
|--2--2-2--6--6-6---------6-4--- 
|--3--3-3--6--6-6--5--5-5-----6- 
|--4--4-4--6--6-6--6--6-6------- 
|--4--4-4--4--4-4--6--6-6------- 
|--2--2-2----------4--4-4------- 
 
|-------------------| 
|-------------------| 
|--3-3-2-3-5--6--5--| 
|--4-4-4-4-6--6--6--| 
|--4-4-4-4-6--4--6--| 
|--2-2-2-2-4-----4--| 
 
Chorus 
|----------------------| 
|----------------------| 
|--3--3-3-2--6-6--5-5--| 
|--4--4-4-4--6-6--6-6--| 
|--4--4-4-4--4-4--6-6--| 
|--2--2-2-2-------4-4--| 
 
that's all 

roll up this ad to continue

share this page

See Also: