E-Chords
The Special Goodness
Key: B
 
Intro / Chorus 
|-------------------| 
|-------------------| 
|--11---------------| 
|--11--12-10-/-9-9--|repeat 
|---9--12-10-/-9-9--| 
|------10--8-/-7-7--| 
 
Verse 
   B     Bm   E 
|-------------------| 
|-------------------| 
|--8-----7----9-----| 
|--9-----9----9-----|repeat 
|--9-x16-9-x8-7-x8--| 
|--7-----7----------| 
 
Chorus 
 
Verse 
 
Chorus 
 
Bridge 
|---------------------| 
|---------------------| 
|--7--7-7-7--5-5-4-4--| 
|--7--7-7-7--5-5-5-5--|repeat 
|--5--5-5-5--3-3-5-5--| 
|----------------3-3--| 
 
i don't know the solo (sorry) 
 
Chorus 
 
 
 
 

roll up this ad to continue

share this page

See Also: