E-Chords
The Special Goodness

Life Goes By(Tabs)

The Special Goodness

The Special Goodness 
Life Goes By 
 
STANDARD TUNING 
 
Intro 
|----------------- 
|----------------- 
|-----------------repeat that 
|--3--3---3--2-4-- 
|--4--4---4--2-4-- 
|--4--4---4--0-2-- 
 
Verse 
|------------------ 
|---0-0-0-0-0-0----   
|--/4-4-4-4-4-4-3--   
|---------------4--   
|---------------4--   
|------------------ 
play that only once, then play intro to the rest 
of the verse 
 
Chorus 
|----------2--2-2------------------ 
|--4--4-4--2--2-2--6--6-6-6-6-6-6-- 
|--4--4-4--3--3-3--6--6-6-6-6-6-6-- 
|--4--4-4--4--4-4--6--6-6-6-6-6-6--x3 
|--2--2-2--4--4-4--4--4-4-4-4-4-4-- 
|----------2--2-2------------------ 
 
|------------------ 
|---0-0-0-0-0-0----   
|--/4-4-4-4-4-4-3--   
|---------------4--   
|---------------4--   
|------------------ 
 
verse 
Chorus 
i don't know the solo 
Chorus 
intro 
  

roll up this ad to continue

share this page

See Also: