E-Chords
The Special Goodness

Inside My Heart(Tabs)

The Special Goodness

Inside my heart by The Special Goodness 
STANDARD TUNING 
 
Intro 
|--------------------------------- 
|--------------------------------- 
|---------4----------------------- 
|-------4-2-4---4--5-5-5-5-7-5-4-- 
|--2-2--2---2-0-2--3-3-3-3-5-3-2-- 
|--0-0---------------------------- 
 
|--------------------------------- 
|--------------------------------- 
|---------4----------------------- 
|-------4-2-4---4----------------- 
|--2-2--2---2-0-2--1-1--1~-------- 
|--0-0-------------2-2--2~-------- 
 
Verse 
|--0-0-0-0-0-0-0--0-0-0-0-0-0--0-0-0-0-0-0--0-0-0-0-0-0 
|--0-0-0-0-0-0-0--0-0-0-0-0-0--0-0-0-0-0-0--0-0-0-0-0-0 
|--1-1-1-1-1-1-1--5-5-5-5-5-5--4-4-4-4-4-4--3-3-3-3-3-3 
|--2-2-2-2-2-2-2--5-5-5-5-5-5--4-4-4-4-4-4--4-4-4-4-4-4 
|--2-2-2-2-2-2-2--3-3-3-3-3-3--2-2-2-2-2-2--4-4-4-4-4-4 
|--0-0-0-0-0-0-0----------------------------2-2-2-2-2-2 
 
Chorus 
|------------------------------------- 
|------------------------------------- 
|------------------------------------- 
|--7777777777777777-2222222222222222--x3 
|--7777777777777777-2222222222222222-- 
|--5555555555555555-0000000000000000-- 
 
Then... 
|------------------------------------- 
|------------------------------------- 
|------------------------------------- 
|--7777777777777777-6666666666666666-- 
|--7777777777777777-6666666666666666-- 
|--5555555555555555-4444444444444444-- 
 
End On 
|-----| 
|-----| 
|-----| 
|-----| 
|--2--| 
|--0--| 

roll up this ad to continue

share this page

See Also: