E-Chords
The Sidekicks

Twins Twist(Tabs)

The Sidekicks

roll up this ad to continue

  Guitar 1 
E|---------------------------------------------------------------------------------| 
B|---------------------------------------------------------------------------------| 
G|-----------------------------------------8----8--6-----------8----8--6----9------| 
D|---------8----9--------------8----9------6----6--6----9------6----6--6----9------| x2 
A|-6----6--7----9------6----6--7----9------7----7--7----7------7----7--7----7------| 
E|-7----7--9----11-----7----7--9----11-----0----0--0----0------0----0--0----0------| 


  Guitar 2 
E|-11------------------------------------------------------------------------------| 
B|-12------------------11-----------12-----9-------------------7-------------------| 
G|-11------------------11-----------13-----9-------------------8-------------------| 
D|---------------------------------------------------------------------------------|  
A|---------------------------------------------------------------------------------| 
E|---------------------------------------------------------------------------------| 

E|-11------------------------------------------------------------------------------| 
B|-12------------------11-----------12-----9---------7-----------------------------| 
G|-11------------------11-----------13-----9---------8---------8-------------------| 
D|-----------------------------------------------------------------------8---------|  
A|---------------------------------------------------------------------------------| 
E|---------------------------------------------------------------------------------| 
share this page

See Also: