E-Chords
The Scare

Swamp/she's Sleeping In Strangers Beds(Tabs)

The Scare

Key: D

roll up this ad to continue

        remember drop D. 





e------------------------------------------------------- 
B------------------------------------------------------- 
G---10-10---10-10--------------------------------------- 
D---10-10---10-10-10-10-10/11-11--6-6-6-6--------------- 
A---8--8----8--8--10-10-10/11-11--6-6-6-6--------------- 
D-----------------10-10-10/11-11--6-6-6-6--------------- 

e------------------------------------------------------- 
B------------------------------------------------------- 
G---10-10---10-10--------------------------------------- 
D---10-10---10-10-10-10-10/11-11--13-13-13-13----------- 
A---8--8----8--8--10-10-10/11-11--13-13-13-13----------- 
D-----------------10-10-10/11-11--11-11-11-11----------- 


        
share this page

See Also: