E-Chords
The Royal Concept

Goldrushed(Tabs)

The Royal Concept

roll up this ad to continue

Intro/Riff: 
(Guitar 1) 
e|-7-7-5--------10------10----------|-7-7-5------10----10-----10-----10------| 
B|-5-5-5--7/12------12-------12\10--|-7-7-7---------10------------10---------| 
G|-5-5-5----------------------------|-7-7-7----------------------------------| 
D|----------------------------------|----------------------------------------| 
A|----------------------------------|----------------------------------------| 
E|----------------------------------|----------------------------------------| 

e|-7-7-5--------10------10----------|-7-7-5------10----------10--------------| 
B|-5-5-5--7/12------12-------12\10--|-7-7-7------10----10----10-----8--------| 
G|-5-5-5----------------------------|-7-7-7------------11-----------9--------| 
D|----------------------------------|----------------------------------------| 
A|----------------------------------|----------------------------------------| 
E|----------------------------------|----------------------------------------| 

Verse 1: 
(Guitar 1) 
e||------7-7-5----------------------|-------7-7-5----------------------------| 
B||o-----5-5-5----------------------|-------7-7-7----------------------------| 
G||------5-5-5----------------------|-------7-7-7----------------------------| 
D||---------------------------------|----------------------------------------| 
A||o--------------------------------|----------------------------------------| 
E||---------------------------------|----------------------------------------| 

e|-------7-7-5----------------------|--------7-7-5-------5------3-----------|| 
B|-------5-5-5----------------------|--------7-7-7-------7------3----------o|| 
G|-------5-5-5----------------------|--------7-7-7-------7------------------|| (Repeat twice) 
D|----------------------------------|---------------------------------------|| 
A|----------------------------------|--------------------------------------o|| 
E|----------------------------------|---------------------------------------|| 

e|-7-7-5--------10------10----------|-7-7-5------10----10-----10-----10------| 
B|-5-5-5--7/12------12-------12\10--|-7-7-7---------10------------10---------| 
G|-5-5-5----------------------------|-7-7-7----------------------------------| 
D|----------------------------------|----------------------------------------| 
A|----------------------------------|----------------------------------------| 
E|----------------------------------|----------------------------------------| 

e|-7-7-5--------10------10----------|-7-7-5------10----------10--------------| 
B|-5-5-5--7/12------12-------12\10--|-7-7-7------10----10----10-----8--------| 
G|-5-5-5----------------------------|-7-7-7------------11-----------9--------| 
D|----------------------------------|----------------------------------------| 
A|----------------------------------|----------------------------------------| 
E|----------------------------------|----------------------------------------| 

e|-7-7-5--------10------10----------|-7-7-5------10----10-----10-----10------| 
B|-5-5-5--7/12------12-------12\10--|-7-7-7---------10------------10---------| 
G|-5-5-5----------------------------|-7-7-7----------------------------------| 
D|----------------------------------|----------------------------------------| 
A|----------------------------------|----------------------------------------| 
E|----------------------------------|----------------------------------------| 

e|-7-7-5--------10------10----------|-7-7-5------10----------10--------------| 
B|-5-5-5--7/12------12-------12\10--|-7-7-7------10----10----10--------------| 
G|-5-5-5----------------------------|-7-7-7------------11--------------------| 
D|----------------------------------|----------------------------------------| 
A|----------------------------------|----------------------------------------| 
E|----------------------------------|----------------------------------------| 

Prechorus 1: 
(Guitar 1) 
(Palm muted) 
e|------------------5-5-------------|-----3-3--------------------------------| 
B|-----7-7--------------7-7---------|-5-5-----5-5------5-5-------------------| 
G|-7-7-----7-7--------------7-7-----|----------------------5-5-0-0-----------| 
D|----------------------------------|----------------------------------------| 
A|----------------------------------|----------------------------------------| 
E|----------------------------------|----------------------------------------| 

e|------------------5-5-------------|------------------8-8-------------------| 
B|-----7-7--------------7-7---------|-----8-8--------------8-8---------------| 
G|-7-7-----7-7--------------7-7-----|-9-9-----9-9--------------9-9-----------| 
D|----------------------------------|----------------------------------------| 
A|----------------------------------|----------------------------------------| 
E|----------------------------------|----------------------------------------| 

e|------------------5-5-------------|------------------12-12-----------------| 
B|-----7-7--------------7-7---------|-----------------------12-12------------| 
G|-7-7-----7-7--------------7-7-----|-------12-12-----------------12-12------| 
D|----------------------------------|-14-14-------14-14-----------------14-14| 
A|----------------------------------|----------------------------------------| 
E|----------------------------------|----------------------------------------| 

Chorus 1: 
(Guitar 1) 
e|--10-10-10-10-10-10-10-10-|-10-10-10-10-10-10-10-10-|-10-10-10-10-10-10-10-10-| 
B|--10-10-10-10-10-10-10-10-|-10-10-10-10-10-10-10-10-|-10-10-10-10-10-10-10-10-| 
G|--12-12-12-12-12-12-12-12-|-12-12-12-12-12-12-12-12-|-12-12-12-12-12-12-12-12-| 
D|--------------------------|-------------------------|-------------------------| 
A|--------------------------|-------------------------|-------------------------| 
E|--------------------------|-------------------------|-------------------------| 

e|--10-10-10-10-10-10-10-10-|-10-10-10-10-10-10-10-10-|-10-10-10-10-10-10-10-10-| 
B|--10-10-10-10-10-10-10-10-|-10-10-10-10-10-10-10-10-|-10-10-10-10-10-10-10-10-| 
G|--12-12-12-12-12-12-12-12-|-12-12-12-12-12-12-12-12-|-12-12-12-12-12-12-12-12-| 
D|--------------------------|-------------------------|-------------------------| 
A|--------------------------|-------------------------|-------------------------| 
E|--------------------------|-------------------------|-------------------------| 


e|--10-10-10-10-10-10-10-10-| 
B|--10-10-10-10-10-10-10-10-| 
G|--11-11-11-11-11-11-11-11-| 
D|--------------------------| 
A|--------------------------| 
E|--------------------------| 

Intro/Riff: 
(Guitar 1) 
e|-7-7-5--------10------10----------|-7-7-5------10----10-----10-----10------| 
B|-5-5-5--7/12------12-------12\10--|-7-7-7---------10------------10---------| 
G|-5-5-5----------------------------|-7-7-7----------------------------------| 
D|----------------------------------|----------------------------------------| 
A|----------------------------------|----------------------------------------| 
E|----------------------------------|----------------------------------------| 

e|-7-7-5--------10------10----------|-7-7-5------10----------10--------------| 
B|-5-5-5--7/12------12-------12\10--|-7-7-7------10----10----10-----8--------| 
G|-5-5-5----------------------------|-7-7-7------------11-----------9--------| 
D|----------------------------------|----------------------------------------| 
A|----------------------------------|----------------------------------------| 
E|----------------------------------|----------------------------------------| 

Verse 2: Don't play anything. 


Chorus: 
(Guitar 1) 
(Palm muted) 
e|------------------5-5-------------|-----3-3--------------------------------| 
B|-----7-7--------------7-7---------|-5-5-----5-5------5-5-------------------| 
G|-7-7-----7-7--------------7-7-----|----------------------5-5-0-0-----------| 
D|----------------------------------|----------------------------------------| 
A|----------------------------------|----------------------------------------| 
E|----------------------------------|----------------------------------------| 

e|-------------10-------------------|------------------8-8-------------------| 
B|-----7-7-------10-10-7-7----------|-----8-8--------------8-8---------------| 
G|-7-7-----7-7------------7-7-------|-9-9-----9-9--------------9-9-----------| 
D|----------------------------5-----|---------------------------------------| 
A|----------------------------------|----------------------------------------| 
E|----------------------------------|----------------------------------------| 

e|------------------5-5-------------|------------------12--------------------| 
B|-----7-7--------------7-7---------|--------------------12-12---------------| 
G|-7-7-----7-7--------------7-7-----|-------12-12-------------12-12----------| 
D|----------------------------------|-14-14-------14-14------------14-14-----| 
A|----------------------------------|-----------------------------------14---| 
E|----------------------------------|----------------------------------------| 

(Guitar 2) 
e|---------------------------------|-----------------------------------------| 
B|---------------------------------|-----------------------------------------| 
G|---------------------------------|-----------------------------------------| 
D|---------------------------------|-5----0------------------------(let ring)| 
A|---------------------------------|----------------3---------2-----------0--| 
D|---------------------------------|----------------------------------5------| 

e|---------------------------------|-----------------------------------------| 
B|---------------------------------|-----------------------------------------| 
G|---------------------------------|-----------------------------------------| 
D|---------------------------------|-2---------------------------------------| 
A|---------------------------------|------2---------0--------------(let ring)| 
D|---------------------------------|--------------------------5-------0---0--| 

e|---------------------------------|-----------------------------------------| 
B|---------------------------------|-----------------------------------------| 
G|---------------------------------|-----------------------------------------| 
D|---------------------------------|-----------------------------------------| 
A|---------------------------------|-----------------------------------------| 
D|---------------------------------|-----------------------------------------| 


Chorus: 
(Guitar 1) 
e|--10-10-10-10-10-10-10-10-|-10-10-10-10-10-10-10-10-|-10-10-10-10-10-10-10-10-| 
B|--10-10-10-10-10-10-10-10-|-10-10-10-10-10-10-10-10-|-10-10-10-10-10-10-10-10-| 
G|--12-12-12-12-12-12-12-12-|-12-12-12-12-12-12-12-12-|-12-12-12-12-12-12-12-12-| 
D|--------------------------|-------------------------|-------------------------| 
A|--------------------------|-------------------------|-------------------------| 
E|--------------------------|-------------------------|-------------------------| 

e|--10-10-10-10-10-10-10-10-|-10-10-10-10-10-10-10-10-|-10-10-10-10-10-10-10-10-| 
B|--10-10-10-10-10-10-10-10-|-10-10-10-10-10-10-10-10-|-10-10-10-10-10-10-10-10-| 
G|--12-12-12-12-12-12-12-12-|-12-12-12-12-12-12-12-12-|-12-12-12-12-12-12-12-12-| 
D|--------------------------|-------------------------|-------------------------| 
A|--------------------------|-------------------------|-------------------------| 
E|--------------------------|-------------------------|-------------------------| 


e|--10-10-10-10-10-10-10-10-| 
B|--10-10-10-10-10-10-10-10-| 
G|--11-11-11-11-11-11-11-11-| 
D|--------------------------| 
A|--------------------------| 
E|--------------------------| 

Bridge: 

(Guitar 1) 
e|-------7-7-5----------------------|-------7-7-5----------------------------| 
B|-------5-5-5----------------------|-------7-7-7----------------------------| 
G|-------5-5-5----------------------|-------7-7-7----------------------------| 
D|----------------------------------|----------------------------------------| 
A|----------------------------------|----------------------------------------| 
E|----------------------------------|----------------------------------------| 

e|-------7-7-5----------------------|--------7-7-5-------5------3------------| 
B|-------5-5-5----------------------|--------7-7-7-------7------3------------| 
G|-------5-5-5----------------------|--------7-7-7-------7-------------------| 
D|----------------------------------|----------------------------------------| 
A|----------------------------------|----------------------------------------| 
E|----------------------------------|----------------------------------------| 

e|-------7-7-5----------------------|-------7-7-5----------------------------| 
B|-------5-5-5----------------------|-------7-7-7----------------------------| 
G|-------5-5-5----------------------|-------7-7-7----------------------------| 
D|----------------------------------|----------------------------------------| 
A|----------------------------------|----------------------------------------| 
E|----------------------------------|----------------------------------------| 

e|-------7-7-5----------------------|--------7-7-5-------5-------------------| 
B|-------5-5-5----------------------|--------7-7-7-------7-------------------| 
G|-------5-5-5----------------------|--------7-7-7-------7-------------------| 
D|----------------------------------|----------------------------------------| 
A|----------------------------------|----------------------------------------| 
E|----------------------------------|----------------------------------------| 

(Guitar 2) 
e|--15------------------------------|----------------------------------------| 
B|-----15-----13-----12-------------|----------------------------------------| 
G|---------------------------14-----|----------------------------------------| 
D|----------------------(let ring)--|----------------------------------------| 
A|----------------------------------|----------------------------------------| 
D|----------------------------------|----------------------------------------| 

e|-12-------------------------------|----------------------------------------| 
B|-----12---------------------------|----------------------------------------| 
G|------------14-----12-------------|----------------------------------------| 
D|---------------------------12-----|----------------------------------------| 
A|----------------------(let ring)--|----------------------------------------| 
D|----------------------------------|----------------------------------------| 

e|----------------------------------|----------------------------------------| 
B|----------------------------------|----------------------------------------| 
G|----------------------------------|----------------------------------------| 
D|-5----------------------(let ring)|----------------------------------------| 
A|-----5------3------2------0-------|----------------------------------------| 
D|----------------------------------|----------------------------------------| 

e|----------------------------------|----------------------------------------| 
B|----------------------------------|----------------------------------------| 
G|----------------------------------|----------------------------------------| 
D|-2--------------------------------|----------------------------------------| 
A|-----2------0---------(let ring)--|----------------------------------------| 
D|-------------------5------0-------|----------------------------------------| 


(Don't play until 3:16) 

Outro:  
(Guitar 1) 
e||-7-7-5--------10------10---------|-7-7-5------10----10-----10-----10------| 
B||o5-5-5--7/12------12-------12\10-|-7-7-7---------10------------10---------| 
G||-5-5-5---------------------------|-7-7-7----------------------------------| 
D||---------------------------------|----------------------------------------| 
A||o--------------------------------|----------------------------------------| 
E||---------------------------------|----------------------------------------| 

e|-7-7-5--------10------10----------|-7-7-5------10----------10-------------|| 
B|-5-5-5--7/12------12-------12\10--|-7-7-7------10----10----10-----8------o|| play 2 times 
G|-5-5-5----------------------------|-7-7-7------------11-----------9-------|| 
D|----------------------------------|---------------------------------------|| 
A|----------------------------------|--------------------------------------o|| 
E|----------------------------------|---------------------------------------|| 

 
share this page

See Also: