E-Chords
The Pussycat Dolls

I Hate This(Tabs)

The Pussycat Dolls

Key: Am
INTRO 
e|----------------------------3------------1---------------| 
B|----0-----------3-----------2------------3---------------| 
G|----1-----------2-----------0------------3---------------| 
D|----2-----------0-----------0------------2---------------| 
A|----2-----------1-----------3------------1---------------| 
E|----0-----------0-----------3------------1---------------| 
      Am           C            G              F 

VERSE  1 
e|----------------------------3------------1---------------| 
B|----0-----------3-----------2------------3---------------| 
G|----1-----------2-----------0------------3---------------| 
D|----2-----------0-----------0------------2---------------| x2 
A|----2-----------1-----------3------------1---------------| 
E|----0-----------0-----------3------------1---------------| 
      Am           C            G              F 

PRE Chorus 
e|----------------------------3------------1---------------| 
B|----0-----------3-----------2------------3---------------| 
G|----1-----------2-----------0------------3---------------| 
D|----2-----------0-----------0------------2---------------| x2 
A|----2-----------1-----------3------------1---------------| 
E|----0-----------0-----------3------------1---------------| 
      Am           C            G              F 

Chorus 
e|----------------------------3------------1---------------| 
B|----0-----------3-----------2------------3---------------| 
G|----1-----------2-----------0------------3---------------| 
D|----2-----------0-----------0------------2---------------| x2 
A|----2-----------1-----------3------------1---------------| 
E|----0-----------0-----------3------------1---------------| 
      Am           C            G              F 

INTERLUDE 
e|----------------------------3------------1---------------| 
B|----0-----------3-----------2------------3---------------| 
G|----1-----------2-----------0------------3---------------| 
D|----2-----------0-----------0------------2---------------| x2 
A|----2-----------1-----------3------------1---------------| 
E|----0-----------0-----------3------------1---------------| 
      Am           C            G              F 

VERSE  2 
e|----------------------------3------------1---------------| 
B|----0-----------3-----------2------------3---------------| 
G|----1-----------2-----------0------------3---------------| 
D|----2-----------0-----------0------------2---------------| x2 
A|----2-----------1-----------3------------1---------------| 
E|----0-----------0-----------3------------1---------------| 
      Am           C            G              F 

PRE-Chorus 
e|----------------------------3------------1---------------| 
B|----0-----------3-----------2------------3---------------| 
G|----1-----------2-----------0------------3---------------| 
D|----2-----------0-----------0------------2---------------| x2 
A|----2-----------1-----------3------------1---------------| 
E|----0-----------0-----------3------------1---------------| 
      Am           C            G              F 

Chorus 
e|----------------------------3------------1---------------| 
B|----0-----------3-----------2------------3---------------| 
G|----1-----------2-----------0------------3---------------| 
D|----2-----------0-----------0------------2---------------| x2 
A|----2-----------1-----------3------------1---------------| 
E|----0-----------0-----------3------------1---------------| 
      Am           C            G              F 

INTERLUDE 
e|----------------------------3------------1---------------| 
B|----0-----------3-----------2------------3---------------| 
G|----1-----------2-----------0------------3---------------| 
D|----2-----------0-----------0------------2---------------| x2 
A|----2-----------1-----------3------------1---------------| 
E|----0-----------0-----------3------------1---------------| 
      Am           C            G              F 

BRIDGE 
e|----------------3------------1---------------------------| 
B|----0-----------2------------3-------------2-------------| 
G|----1-----------0------------3-------------0-------------| 
D|----2-----------0------------2-------------0-------------| x2 
A|----2-----------3------------1-------------3-------------| 
E|----0-----------3------------1-------------0-------------| 
      Am           G             F               C/B 

Chorus 
e|----------------------------3------------1---------------| 
B|----0-----------3-----------2------------3---------------| 
G|----1-----------2-----------0------------3---------------| 
D|----2-----------0-----------0------------2---------------| x2 
A|----2-----------1-----------3------------1---------------| 
E|----0-----------0-----------3------------1---------------| 
      Am           C            G              F 

INTERLUDE (?I gotta do it? I hate this part?) 
e|-----------------------------------------1---------------| 
B|----0-----------3-----------2------------3---------------| 
G|----1-----------2-----------0------------3---------------| 
D|----2-----------0-----------0------------2---------------| x2 
A|----2-----------1-----------3------------1---------------| 
E|----0-----------0-----------0------------1---------------| 
      Am           C            C/B              F 

OUTRO 
e|----------------------------3------------1---------------| 
B|----0-----------3-----------2------------3---------------| 
G|----1-----------2-----------0------------3---------------| 
D|----2-----------0-----------0------------2---------------| x2 
A|----2-----------1-----------3------------1---------------| 
E|----0-----------0-----------3------------1---------------| 
      Am           C            G              F 

LYRICS 

Verse 1 
We're driving slow through the snow on 5th Avenue 
And right now radio's all that we can hear 
Now we ain't talk since we left, it's so over due 
It's cold outside but between us it's worse in here 

Pre-Chorus 
The world slows down 
But my heart beats fast right now 
I know this is the part 
Where the end starts 

Chorus 
I can't take it any longer 
Thought that we were stronger 
All we do is linger 
Slipping through my fingers 
I don't wanna try now 
All that's left's goodbye to 
Find a way that I can tell you 

Interlude 
I hate this part right here 
I hate this part right here 
I just can't take your tears 
I hate this part right here 

Verse 2 
Everyday, 7 takes of the same old scene 
Seems we're bound by the laws of the same routine 
Gotta talk to you now 'fore we go to sleep 
But will we sleep once I tell you what's hurting me 

Pre-Chorus 

Chorus 

Interlude 

Bridge 
I know you'll ask me to hold on 
And carry on like nothing's wrong 
But there is no more time for lies 
'Cause I see sunset in your eyes 

Chorus 

Interlude 
That I gotta do it, 
I gotta do it, 
I gotta do it 
I hate this part 
I gotta do it, 
I gotta do it, 
I gotta do it 

I hate this part right here 
I hate this part right here 
I just can't take these tears 
I hate this part right here 

roll up this ad to continue

share this page

See Also: