E-Chords
The Pussycat Dolls

Beep(Tabs)

The Pussycat Dolls

Beep 

Intro: 
E|--10--10--9--5--4--0--------| 
B|----------------------4--0--| 
G|----------------------------| 
D|----------------------------| 
A|----------------------------| 
E|----------------------------| 

Ha ha ha ha ha, ha ha ha ha... 
E|--5-----3-----0--5-----3--0--| 
B|-----5-----3--------5--------| 
G|-----------------------------| 
D|-----------------------------| 
A|-----------------------------| 
E|-----------------------------| 

Ha ha ha ha ha, ha ha ha ha... 
E|--8------7-----5--8--5--7-----| 
B|-----10-----8--------------8--| 
G|------------------------------| 
D|------------------------------| 
A|------------------------------| 
E|------------------------------| 

{Chorus:} 
It's funny how a man only thinks about the BEEP 
Ya got a real big heart, but I'm lookin' at yo BEEP 
Ya got big brains, but I'm lookin' at yo BEEP 
Girl it ain't no pain in me lookin' at yo BEEP 
I don't give my BEEP 
Keep lookin' at my BEEP 
'Cuz it don't mean a thing if you look at my BEEP 
Ha, I'mma do my things while you're playin' with yo BEEP 

Ha ha ha, ha ha ha ha 
E|--5-----5--3-----5--| 
B|-----5--------5-----| 
G|--------------------| 
D|--------------------| 
A|--------------------| 
E|--------------------| 

{Repeat intro} 

Every boy's the same since up in the 7th grade 
They've been tryin' get with me, tryina 

Ha ha ha, ha ha ha 
E|--3--5--------------| 
B|--------5--3--5-----| 
G|-----------------5--| 
D|--------------------| 
A|--------------------| 
E|--------------------| 

They always got a plan to be my one and only man 
Wanna hold me with their hands, wanna 

Ha ha ha, ha ha ha 
E|--3--5--------------| 
B|--------5--3--5-----| 
G|-----------------5--| 
D|--------------------| 
A|--------------------| 
E|--------------------| 

But I keep turnin' 'em down, they always come around 
Asking me to go around, that's not the way it's going down 


'Cause they only want, only want my... 
E|--3--5--------------| 
B|--------5--3--5-----| 
G|-----------------5--| 
D|--------------------| 
A|--------------------| 
E|--------------------| 

Ha ha ha, ha ha ha 
E|--8--10-----8--10------| 
B|--------11---------11--| 
G|-----------------------| 
D|-----------------------| 
A|-----------------------| 
E|-----------------------| 

Only want, what they want, but... 
E|--3--5--------------| 
B|--------5--3--5-----| 
G|-----------------5--| 
D|--------------------| 
A|--------------------| 
E|--------------------| 

Na ah ah, na ah ah 
E|--8--10-----8--10------| 
B|--------11---------11--| 
G|-----------------------| 
D|-----------------------| 
A|-----------------------| 
E|-----------------------| 

{Chorus} 

{Repeat intro} 

Do you know that 'no' don't means 'yes', it's 'no' 
So just hold up, wait a minute, let me put my 2 cents in 
One: just be painted, don't be rushing like your anxitious, and 
Two: your just too aggressive, tryin' get your... aah 

Do you know...? 
E|--5--7--8--| 
B|-----------| 
G|-----------| 
D|-----------| 
A|-----------| 
E|-----------| 

That I know...? 
E|--5--7--8--| 
B|-----------| 
G|-----------| 
D|-----------| 
A|-----------| 
E|-----------| 

And I don't... 
E|-----5--7--| 
B|--8--------| 
G|-----------| 
D|-----------| 
A|-----------| 
E|-----------| 

Wanna go... 
E|-----5--7--| 
B|--8--------| 
G|-----------| 
D|-----------| 
A|-----------| 
E|-----------| 

'Cause they only want, only want my... 
E|--3--5--------------| 
B|--------5--3--5-----| 
G|-----------------5--| 
D|--------------------| 
A|--------------------| 
E|--------------------| 

Ha ha ha, ha ha ha 
E|--8--10-----8--10------| 
B|--------11---------11--| 
G|-----------------------| 
D|-----------------------| 
A|-----------------------| 
E|-----------------------| 

Only want, what they want, but... 
E|--3--5--------------| 
B|--------5--3--5-----| 
G|-----------------5--| 
D|--------------------| 
A|--------------------| 
E|--------------------| 

Na ah ah, na ah ah 
E|--8--10-----8--10------| 
B|--------11---------11--| 
G|-----------------------| 
D|-----------------------| 
A|-----------------------| 
E|-----------------------| 

{Chorus} 

{Repeat intro} 

Pom pom pom pom pom pom pom 
E|--3--3--10--10-----------| 
B|----------------8--8--8--| 
G|-------------------------| 
D|-------------------------| 
A|-------------------------| 
E|-------------------------| 

Pom pom pom pom pom pom pom 
E|--------10--10--------------| 
B|--8--8----------------------| 
G|----------------12--12--12--| 
D|----------------------------| 
A|----------------------------| 
E|----------------------------| 

Oh, you got it bad, I can tell... 
E|----------10--10--------------| 
B|------------------------------| 
G|--12--12----------12--12--12--| (6x) 
D|------------------------------| 
A|------------------------------| 
E|------------------------------| 

{Repeat intro} 

{Chorus 2x} 

{Repeat intro} 

BEEP 

--- 

Obs.: No refrão há 8 BEEPs: 

It's funny how a man only thinks about the BEEP (1) 
Ya got a real big heart, but I'm lookin' at yo BEEP (2) 
Ya got big brains, but I'm lookin' at yo BEEP (3) 
Girl it ain't no pain in me lookin' at yo BEEP (4) 
I don't give my BEEP (5) 
Keep lookin' at my BEEP (6) 
'Cuz it don't mean a thing if you look at my BEEP (7) 
Ha, I'mma do my things while you're playin' with yo BEEP (8) 

Como fazer seus sons: 

BEEP: 1   2   3   4   5   6   7   8 
E|--|-5-|-5-|-5-|---|---|-5-|-5?|-5?| 
B|--|---|---|---|---|-2-|---|---|---| 
G|--|---|---|---|---|---|---|---|---| 
D|--|---|---|---|---|---|---|---|---| 
A|--|---|---|---|---|---|---|---|---| 
E|--|---|---|---|-5-|---|---|---|---| 

roll up this ad to continue

share this page

See Also: