E-Chords
The Pod

Lights out(Tabs)

The Pod

Intro/Chorus: 
E-------------------               -------------| 
B-------------------               -------------| 
G-------------------               -------------| 
D--2-0-2---0-2-00-5-0  Last Time:  --2-0-2--7-5-| 
A--2-0-2---0-2-00-5-0              --2-0-2--7-5-| 
D--2-0-2---0-2-00-5-0              --2-0-2--7-5-| 
 
Verse: 
E-------------------------           -----------            ----| 
B-------------------------           -----------            ----| 
G-------------------------           -----------            ----| 
D-------------------------           -----------            7-5-| 
A--5/7777777-9-77-9-7-9/12 4th Time: 7-9-5555555 Last Time: 7-5-| 
D-------------------------           -----------            7-5-| 
 
Pre-Chorus: 
E--------------------------| 
B--------------------------| 
G--------------------------| 
D----------------77-5------| 
A--12-10-13--12--77-5------| 
D----------------77-5------| 
 
Bridge: 
E-------------------  -------  -------------  ------| 
B--3/5-5/3-3/5-5/3--  3h5-3h5  /15h17-/15h17  ------| 
G-------------------  -------  -------------  ------| 
D-------------------  -------  -------------  7-5/0-| 
A-------------------  -------  -------------  7-5/0-| 
D-------------------  -------  -------------  7-5/0-| 
  
  
  
 

roll up this ad to continue

share this page

See Also: