E-Chords
The Pod

Alive(Tabs)

The Pod

Key: D
h - Hammer on 
p - Pull off 
 
Tuning: D G C F A D 
 
 
Intro and Verse - 0:01-0:35 
|-------------------------------------------------| 
|-------------------------------------------------| 
|-----------------------5-5-5-5-5--5-5-5-5--------| x6 
|-2-2-2-0-2---7-7-7-7---5-5-5-5-5--5-5-5-5--5-5-5-| 
|-2-2-2-0-2---7-7-7-7---3-3-3-3-3--3-3-3-3--5-5-5-| 
|-2-2-2-0-2---5-5-5-5-----------------------5-5-5-| 
 
 
Chorus - 0:36-0:59 
|--------------------------------------------------------------------------| 
|--------------------------------------------------------------------------| 
|-----------------5-5-5-5-5-5-5---7-7-7-7-7-7-7-----7-7-7-7----------------| x2 
|-7-7-7-7-7-7-7---5-5-5-5-5-5-5---7-7-7-7-7-7-7--0--7-7-7-7--------5-------| 
|-7-7-7-7-7-7-7---3-3-3-3-3-3-3---5-5-5-5-5-5-5--0--5-5-5-5--9-8-0---7-6-0-| 
|-5-5-5-5-5-5-5---0-0-0-0-0-0-0---0-0-0-0-0-0-0--0--0-0-0-0----------------| 
 
 
Verse - 1:00-1:23 
|------------------------------------------------| 
|------------------------------------------------| 
|-----------------------5-5-5-5---5-5-5-5--------| x4 
|-2-2-2-0-2---7-7-7-7---5-5-5-5---5-5-5-5--5-5-5-| 
|-2-2-2-0-2---7-7-7-7---3-3-3-3---3-3-3-3--5-5-5-| 
|-2-2-2-0-2---5-5-5-5----------------------5-5-5-| 
 
 
Chorus - 1:23 - 1:47 
|--------------------------------------------------------------------------| 
|--------------------------------------------------------------------------| 
|-----------------5-5-5-5-5-5-5---7-7-7-7-7-7-7-----7-7-7-7----------------| x2 
|-7-7-7-7-7-7-7---5-5-5-5-5-5-5---7-7-7-7-7-7-7--0--7-7-7-7--------5-------| 
|-7-7-7-7-7-7-7---3-3-3-3-3-3-3---5-5-5-5-5-5-5--0--5-5-5-5--9-8-0---7-6-0-| 
|-5-5-5-5-5-5-5---0-0-0-0-0-0-0---0-0-0-0-0-0-0--0--0-0-0-0----------------| 
 
 
Bridge 1:47 - 2:22 (with phaser or flanger effect) 
|----------|     |-14h15p14-|      |----------|     |-14h15p14-| 
|----------|     |----------|      |----------|     |----------| 
|----------| x1  |----------| x10  |----------| x2  |----------| x10 
|---6-5--0-|     |----------|      |---6-5--0-|     |----------| 
|-5--------|     |----------|      |-5--------|     |----------| 
|----------|     |----------|      |----------|     |----------| 
 
 
Chorus - 2:23 - 3:08 (there's some high pitched 14 & 15s as in the previous section in between) 
|--------------------------------------------------------------------------| 
|--------------------------------------------------------------------------| 
|-----------------5-5-5-5-5-5-5---7-7-7-7-7-7-7-----7-7-7-7----------------| x3 
|-7-7-7-7-7-7-7---5-5-5-5-5-5-5---7-7-7-7-7-7-7--0--7-7-7-7--------5-------| 
|-7-7-7-7-7-7-7---3-3-3-3-3-3-3---5-5-5-5-5-5-5--0--5-5-5-5--9-8-0---7-6-0-| 
|-5-5-5-5-5-5-5---0-0-0-0-0-0-0---0-0-0-0-0-0-0--0--0-0-0-0----------------| 
 
 
Outro 3:10 - 3:21 
|------------------------| 
|------------------------| 
|------------------------| x4 
|-2-2-2-0-2--0-0-0-2-0-2-| 
|-2-2-2-0-2--0-0-0-2-0-2-| 
|-2-2-2-0-2--0-0-0-2-0-2-| 
 
 
 

roll up this ad to continue

share this page

See Also: