E-Chords
The Plot In You

Take Me Away(Tabs)

The Plot In You

roll up this ad to continue

Key: A#
Intro 

C |-----------| 
G |-----------| 
Eb|-2--4------| 
A#|-4--2------| 
F |-4--2------| 
A#|-4--2------| 

Verse 
X2 
C |--------------------------------| 
G |--------------------------------| 
Eb|-----2-------1------------------| 
A#|---4-------4--------------------| 
F |--------------------------------| 
A#|-4-------2----------------------| 

Pre-Chorus 
X2 
C |------------------------|----------------------------------| 
G |------------------------|----------------------------------| 
Eb|-----2---2-------2---2--|------1---1-------1---1-----------| 
A#|---4---4---4---4---4---4|----4---4---4---4---4---4---------| 
F |------------------------|----------------------------------| 
A#|-4-----------4----------|--2-----------2-------------------| 

Chorus 

C |-----------| 
G |-----------| 
Eb|-2--4------| 
A#|-4--2------| 
F |-4--2------| 
A#|-4--2------| 

Breakdown 
X4                              End with Chords 
C |-----------------------------|----------| 
G |-----------------------------|----------| 
Eb|-----------------------------|-2--4-----| 
A#|-7--2/4--------7--2/4--------|-4--2-----| 
F |-7--2/4-x-x-x--7--2/4-4-4-4--|-4--2-----| 
A#|-7--2/4-x-x-x--7--2/4-4-4-4--|-4--2-----| 

Pre-Chorus 
X3 
C |------------------------|----------------------------------| 
G |------------------------|----------------------------------| 
Eb|-----2---2-------2---2--|------1---1-------1---1-----------| 
A#|---4---4---4---4---4---4|----4---4---4---4---4---4---------| 
F |------------------------|----------------------------------| 
A#|-4-----------4----------|--2-----------2-------------------| 

Outro 
C |-----------| 
G |-----------| 
Eb|-2--4------| 
A#|-4--2------| 
F |-4--2------| 
A#|-4--2------| 

************************************************************************************************************** 
/ Slide up 
************************************************************************************************************** 
share this page

See Also: