E-Chords
The Mess Hall

Lock And Load(Tabs)

The Mess Hall

roll up this ad to continue

Key: D
Tuning: Drop D (DADGBE) 
P.M. = Palm Mute (strumming hand) 
 
 
1ST VERSE: 
  P.M.____    ____     ____     ____ 
E-|-----------------------------------------|- 
B-|-------(6)------(6)------(6)-------6p5h6-|- 
G-|--------7--------7--------7--------7-----|- 
D-|--7--7--7--7--7--7--7--7--7--7--7--7-----|-(x 12) 
A-|--5--5--5--5--5--5--5--5--5--5--5--------|- 
D-|--0--0-----0--0-----0--0-----0--0--------|- 
 
1ST CHORUS: 
E-|------------------------------|- 
B-|------------------------------|- 
G-|------------------------------|- 
D-|-7--7--7-7-7-9--9--9--7-9-7-9-|-(x 4) 
A-|-5--5--5-5-5-5--5--5--5-5-5-5-|- 
D-|-0--0--0-0-0-0--0--0--0-0-0-0-|- 
 
2ND VERSE: 
  P.M.____    ____     ____     ____ 
E-|-----------------------------------------|- 
B-|-------(6)------(6)------(6)-------6p5h6-|- 
G-|--------7--------7--------7--------7-----|- 
D-|--7--7--7--7--7--7--7--7--7--7--7--7-----|-(x 8) 
A-|--5--5--5--5--5--5--5--5--5--5--5--------|- 
D-|--0--0-----0--0-----0--0-----0--0--------|- 
 
2ND CHORUS: 
E-|------------------------------|- 
B-|------------------------------|- 
G-|------------------------------|- 
D-|-7--7--7-7-7-9--9--9--7-9-7-9-|-(x 4) 
A-|-5--5--5-5-5-5--5--5--5-5-5-5-|- 
D-|-0--0--0-0-0-0--0--0--0-0-0-0-|- 
 
E-|------------------------|------------------------------|- 
B-|------------------------|------------------------------|- 
G-|-7--7--7--7--7--7--7--7-|------------------------------|- 
D-|-5--5--5--5--5--5--5--5-|-7--7--7-7-7-9--9--9--7-9-7-9-|-(x 2) 
A-|-5--5--5--5--5--5--5--5-|-5--5--5-5-5-5--5--5--5-5-5-5-|- 
D-|-5--5--5--5--5--5--5--5-|-0--0--0-0-0-0--0--0--0-0-0-0-|- 
 
E-|------------------------------|- 
B-|------------------------------|- 
G-|------------------------------|- 
D-|-7--7--7-7-7-9--9--9--7-9-7-9-|-(repeat a few more times) 
A-|-5--5--5-5-5-5--5--5--5-5-5-5-|- 
D-|-0--0--0-0-0-0--0--0--0-0-0-0-|- 
 
BRIDGE: (after playing D for a few bars) 
E-|--------------------|- 
B-|----6-----6-----6-6-|- 
G-|----7-----7-----7-7-|- 
D-|----7-----7-----7-7-|-(x 4) 
A-|-0-----0-----0------|- 
D-|-0-----0-----0------|- 
 
E-|----4-----4-----4-4-|- 
B-|----6-----6-----6-6-|- 
G-|----7-----7-----7-7-|- 
D-|----7-----7-----7-7-|-(x 2) 
A-|-0-----0-----0------|- 
D-|-0-----0-----0------|- 
 
E-|----5-----5-----5-5-|- 
B-|----6-----6-----6-6-|- 
G-|----7-----7-----7-7-|- 
D-|----7-----7-----7-7-|-(x 2 - then let the open D string ring for a while) 
A-|-0-----0-----0------|- 
D-|-0-----0-----0------|- 
 
E-|------------------------|- 
B-|------------------------|- 
G-|-----7---7---7----------|- 
D-|-----9---9---7---7h9/12-|-(x 4 - last time don't do the hammer / slide) 
A-|------------------------|- 
D-|-(0)--------------------|- 
 
3RD VERSE: 
  P.M.____    ____     ____     ____ 
E-|-----------------------------------------|- 
B-|-------(6)------(6)------(6)-------6p5h6-|- 
G-|--------7--------7--------7--------7-----|- 
D-|--7--7--7--7--7--7--7--7--7--7--7--7-----|-(x 8) 
A-|--5--5--5--5--5--5--5--5--5--5--5--------|- 
D-|--0--0-----0--0-----0--0-----0--0--------|- 
 
E-|------------------------------|- 
B-|------------------------------|- 
G-|------------------------------|- 
D-|-7--7--7-7-7-9--9--9--7-9-7-9-|-(repeat till finish - just play D5 for the last few bars) 
A-|-5--5--5-5-5-5--5--5--5-5-5-5-|- 
D-|-0--0--0-0-0-0--0--0--0-0-0-0-|- 
 
Tab courtesy of Oz Tabs - www.ozmusic-central.com.au/oztabs 
 
share this page

See Also: