E-Chords
The Marketts

Here Come The Ho-dads(Tabs)

The Marketts

roll up this ad to continue

Key: G
Intro 

     G                            Em                             Repeat once   
e|--------------------------------12---12---12--12--12--12-------------------| 
B|---12---12---12--12--12--12-----12---12---12--12--12--12-------------------| 
G|---12---12---12--12--12--12-----12---12---12--12--12--12-------------------| 
D|---12---12---12--12--12--12-----14---14---14--14--14--14-------------------| 
A|---------------------------------------------------------------------------| 
E|---------------------------------------------------------------------------| 

  0:33 
e|---------------------------------------------------------------------------| 
B|---------------------------------------------------------------------------| 
G|---------------------------------------------------------------------------| 
D|---5----5-----2----2--------5----5-----2----2------------------------------| 
A|-----5----5-----2----2--------5----5-----2----2----------------------------| 
E|---------------------------------------------------------------------------| 


Saxophone solo 

  0:46                                                           Repeat once 
e|---------------------------------------------------------------------------| 
B|---------------------------------------------------------------------------| 
G|---9/12------9--9--7-------------------------------------------------------| 
D|---------12-----------9--5---9/2----9/2------------------------------------| 
A|---------------------------------------------------------------------------| 
E|---------------------------------------------------------------------------| 
  

************************************ 

| /  Slide up 

************************************ 
share this page

See Also: