E-Chords
The Kooks

she?s move in her own way(Tabs)

The Kooks

e|--------------------0-3---7s-5-3--5----8-7-5-7-3---------------5-7-10-| 
b|------------0-3-0-3-----------------3---------------------------------| 
g|-------0-2--------------------------------------------------0---------| 
d|-2-0-2-----------------------------------------------2-0-2------------| 
a|----------------------------------------------------------------------| 
e|----------------------------------------------------------------------| 
 
 
e|-10--19s-17-15-17----12-10---8-7---5-7----| 
b|-------------------------------------8----| 
g|------------------------------------------| 
d|------------------------------------------| 
a|------------------------------------------| 
e|------------------------------------------| 

roll up this ad to continue

share this page

See Also: