E-Chords
The Kooks

See the world(Tabs)

The Kooks

Key: G
CHORDS USED: 
    G  A  Bm D  E  G*  F#m Bm* F7 
e|--3--5--7--5--7--10--9---2---8-------------|| 
B|--3--5--7--7--9--12--10--3---10------------|| 
G|--4--6--7--7--9--12--11--4---x-------------|| 
D|--5--7--9--7--9--12--11--4---10------------|| 
A|--5--7--9--5--7--10--9---2---8-------------|| 
E|--3--5--7--5--7?-x---x---x-----------------|| 
 
-the second Bm chord in the Verse is not a simple minor chord; it is a Bm variation of 
sort, but I cannot for the life of me figure it out! I think perhaps it could be; 
(low to high), but I don?t think it sounds quite right. I?ve marked it on the tab as  
Can anybody figure it out? Please let me know if you can crack it. 
 
 
INTRO 
    G                                    A   G     A   Bm    A   Bm    A 
e|--------------------------33333333-3-x-55x-3-3-x-55x-7-7-x-55x-7-7-x-55x-| 
B|-3-3-33333-3-33333-3-3333-33333333-3-x-55x-3-3-x-55x-7-7-x-55x-7-7-x-55x-| 
G|--------------------------44444444-4-x-66x-4-4-x-66x-7-7-x-66x-7-7-x-66x-| 
D|---------------------------------5-5-x-77x-5-5-x-77x-9-9-x-77x-9-9-x-77x-| 
A|-------------------------------------------------------------------------| 
E|-------------------------------------------------------------------------| 
   D D DDDDD D DDDDD D DDDD DDDDDDDD D   UD  D D   UD  D D   UD  D D   UD 
 
 
Chorus (same as last part of the intro, but with bass strings included) 
    G     A      G   A     Bm   A     Bm  A 
e|----3-x-55x----3-x-55x----7-x-55x---7-x-55x-------|| 
B|----3-x-55x----3-x-55x----7-x-55x---7-x-55x-------|| 
G|----4-x-66x----4-x-66x----7-x-66x---7-x-66x-------|| 
D|----5-x-77x----5-x-77x----9-x-77x---9-x-77x-------|| 
A|--5----------5----------9----------9--------------|| 
E|--3----------3----------7----------7--------------|| 
    D D   UD   D D   UD   D D   UD   D D  UD 
 
VERSE (strum) 
    A       G                 Bm       D                G 
e|- 5-------3-----------------7--------5----------------3-----------------|| 
B|--5-------3-----------------7--------7----------------3-----------------|| 
G|--6-------4-----------------7--------7----------------4-----------------|| 
D|--7-------5-----------------9--------7----------------5-----------------|| 
A|--7-------5-----------------9--------5----------------5-----------------|| 
E|--5-------3-----------------7--------5----------------3-----------------|| 
        I remember?   used to sing?   ?poems in your bedsit,  finding time 
 
                   E             ?Bm?                 G            Bm 
e|-----------------7--------------7-------------------3------------7-----| 
B|-----------------9--------------7-------------------3------------7-----| 
G|-----------------9--------------7-------------------4------------7-----| 
D|-----------------9--------------9-------------------5------------9-----| 
A|-----------------7--------------9-------------------5------------9-----| 
E|-----------------7--------------7------ ------------3------------7-----| 
   to be the passenger?   ?saw me leave?   ?sailing away? 
?you know 
 
                   G 
e|-----------------3-------------------------------------------------| 
B|-----------------3-------------------------------------------------| 
G|-----------------4---- repeat G and Bm section until end of verse -| 
D|-----------------5-------------------------------------------------| 
A|-----------------5-------------------------------------------------| 
E|-----------------3-------------------------------------------------| 
  you never come away? 
 
SOLO (played over the Chorus chords) 
e|------10-------------------------------------------------------------|| 
B|--12------12--10----8p7-----------12p10------------------------------|| 
G|------------------------9p7?-9/11-------11/9--7-9b11-----------------|| 
D|---------------------------------------------------------------------|| 
A|---------------------------------------------------------------------|| 
E|---------------------------------------------------------------------|| 
 
-repeat Chorus once through, with different lyrics. 
 
-repeat VERSE, with this extra chord before the E. Also; keep playing the 
?Bm? chord for a bar longer than in the first verse. 
            F7     E 
e|----------8--8---77x-7-7x----|| 
B|----------10-10--99x-9-9x----|| 
G|----------x--x---99x-9-9x----|| 
D|----------10-10--99x-9-9x----|| 
A|----------8--8---77x-7-7x----|| 
E|-----------------------------|| 
  ?take it back,    wrap your life around? 
 
OUTRO (strum) 
    G*                      F#m  Bm* 
e|--10----------------------9----2--|| 
B|--12----------------------10---3--|| 
G|--12----------------------11---4--|| repeat with ad-lib vocals 
D|--12----------------------11---4--|| 
A|--10----------------------9----2--|| 
E|--x-----------------------x----x--|| 
    Do you want to see the world? 
 
End on Bm* 

roll up this ad to continue

share this page

See Also: