E-Chords
The Kooks

Love It All(Tabs)

The Kooks

Key: D
Intro Chords: 

D A G G 

Intro Riff: 

e|-----------------------------5/7\6-------------------------------5/7\6----| 
B|--7--------5--------8--8-----6/8\6----7------7----5---------8----6/8\6----| 
G|-----7------6----------7-----------------7---------6--6-----7-------------| 
D|--------7----7---5-------------------------7--------7---7-5---------------| 
A|--------------------------------------------------------------------------| 
E|--------------------------------------------------------------------------| 

e|--------------------------------------------------------------------------| 
B|---8h7-----7------5-------12*Natural harmonics----------------------------| 
G|-------7------7-----------12*'---------------'----------------------------| 
D|---------7---------5------12*'---------------'----------------------------| 
A|--------------------------------------------------------------------------| 
E|--------------------------------------------------------------------------| 


Verse I: 
D     A             G         G 
  See I've got this woman here, 
D      A                G     G 
   She loves me all the time. 
D     A        G         G 
   No need for excuses, 
D    A               G    G 
  No pressures in my mind. 

e|-----|------------------|---------------------|---------------------------| 
B|-7/5-|------------------|7-h8p8-----------10--|-10-10-10-10-10-10-10-10-10| 
G|-----|------------------|-------9-7--9/--11---|-11-11-11-11-11-11-11-11-11| 
D|-----|------------------|---------------------|---------------------------| 
A|-----|------------------|---------------------|---------------------------| 
E|-----|-2-3-2-3--5---/10-|---------------------|---------------------------| 


Chorus: 
        D 
And she said love it all, 
        A 
Love it all, 
        G      G 
Love it all. 
        D 
And she said love it all, 
         A 
Love it all, 
         G 
Love it all. 

e|-------------------------|---------------------------------------------------| 
B|-------------------------|---------------------------------------------------| 
G|-------------------------|---------------------------------------------------| 
D|-0-2p0---4--4--4p0--2-0--|--0-2p0----2---4--4p0----2p0----0------------------| 
A|-------------------------|---------------------------------------------------| 
E|-------3-----------------|--------3-----3---------3-----3--------------------| 

My heart was living down, 
And I've been pushed over the line. 
But on your hand, 
It'd be broken. 
And I'll be all over this time. 

e|--------|---10-9--------------------------------------------------------| 
B|-3--/15-|-------12-10-----------------------------7h8p7h8--10-----------| 
G|--------|-------------12-11-12-11-9-11-9-7-9b---------------------------| 
D|--------|---------------------------------------------------------------| 
A|--------|---------------------------------------------------------------| 
E|--------|---------------------------------------------------------------| 

e|----7-7---7-7--|--------------------------| 
B|---7-----7-----|--------------------------| 
G|--7-----7------|---------0----------------| 
D|---------------|-------0------------------| 
A|---------------|--------------------------| 
E|---------------|----3-------(3)-----------| 

Chorus x 2 

GUITAR SOLO (yay) 

e|--------------------------------------------------------------------------| 
B|--7h8p7h8-10--7h8p7h8-10--10br-------10-10--10--7---7h8p7h8-10--7h8p7h8-10| 
G|-------------------------------9b--11---11--9---7-------------------------| 
D|--------------------------------------------------------------------------| 
A|--------------------------------------------------------------------------| 
E|--------------------------------------------------------------------------| 

e|---10--10--------------------------------| 
B|-/12-12-------12-12----------------------| 
G|---------14---11-------------------------| 
D|--------------9--------------------------| 
A|-----------------------------------------| 
E|-----------------------------------------| 

Chords played over guitar solo are: 
A G D D 
A G Bm Bm 

Chorus x3 

roll up this ad to continue

share this page

See Also: