E-Chords
The Kooks

Keep Your Head Up(Tabs)

The Kooks

Key: E
Riff base (agudo) 
E|------------1------------------1-----------------4-------------------2------------- 
B|-----2-2------2-2------2-2----2-2------2-2-----2-2-----2-2-------2-2------ 
G|-1-------------------1-----------------2------------------2------------------------ 

Riff complementar (grave) 
E|---------------------------------------------------  
B|--------------------------------------------------- 
G|--------------------------------------------------- 
D|--3-3--0-1-3-4---4-4--4-3-------------------   
A|---------------------------------------------------   
E|---------------------------------------------------   

Refrão (batida) (no primeiro acorde, só tocar as cordas E, B e G) 
E|---1------------ 
B|---2------------   F# 
G|---1------------ 

(Riffs) 
 remember the trees, remember 
 the animals doing what they please 
 remember making love in the garden, thank you please 
 remember the green grass 
 remember the time passing slowly 
 remember we were so true, we were so true 

 (Batida) 
 so always keep your head up, your head up 
 so always keep your head up, your head up 
 so always keep your head up, your head up 
 so always keep your head up, your head up 

 (Riffs) 
 remember shadows, on the path to the lake 
 when we would take our time, talking and drinking wine 
 remember walking, with nowhere to go 
 remember living in silence, just a look to know 

 (Batida) 
 so always keep your head up, your head up 
 so always keep your head up, your head up 
 so always keep your head up, your head up 
 so always keep your head up, your head up 

durante o Solo: F# A G (repete os acordesaté o final) 

roll up this ad to continue

share this page

See Also: