E-Chords
The Kooks

Got no love(Tabs)

The Kooks

Intro and main riff: 
e---------------------------| 
B---------------------------| 
G---------4-----------------| 
D------------5-5-----5------| 
A-----5-----------3---------| 
E--3------------------------| 
 
0:51 
e--7--5--3--3----| 
B--8--7--5--3----|then back to 
G--9--7--5--4----|main riff 
D--9--7--5--5----| 
A--7--5--3--5----| 
E--x--x--x--3----| 
 
1:27 
e--7--5--3--5--3---| 
B--8--5--3--7--5---| 
G--9--5--4--7--5---|not too sure 
D--9--7--5--7--5---|about the Amin 
A--7--7--5--5--3---| 
E--x--5--3--x--x---| 
 
1:50 
e----------------------------------| 
B-------------------------6-s-8----| 
G---------------3--5-s-7-----------| 
D--------3-h-5---------------------| 
A--3--5----------------------------| 
E----------------------------------| 
 
1:55 
e--10b12----------| 
B--------10b12----| 
G-----------------| 
D-----------------| 
A-----------------| 
E-----------------| 
 
1:59 
e-------------------------| 
B-------------------------| 
G----5h6p5s3h5p3----------| 
D--5-------------5--3h5---| 
A-------------------------| 
E-------------------------| 

roll up this ad to continue

share this page

See Also: