E-Chords
The Kooks

Do You Wanna(Tabs)

The Kooks

Key: Am
Intro: 
 
E|-----|----------------------------------------5--------7------------------| 
B|-----|------------------------------------------6---------8---------------| 
G|-----|--------------------------7---7-5-7-5-------7----7------------------| 
D|-----|------7-5-7-5-7^--7-5-7-5-------------------------------------------| 
A|-----|--------------------------------------------------------------------| 
E|-5-5-|-5-5----------------------------------------------------------------| 
 

 
E|-----------------------------------------------------------5---------7----| 
B|------------------------------------------------------------6----------8--| 
G|-----------------------7---7-5-7-5------5-----4--------------7-------7----| 
D|--7-5-7-5-7^--7-5-7-5-----------------------------------------------------|  (4x) 
A|--------------------------------------------------------------------------| 
E|--------------------------------------------------------------------------| 
 

Verso: Am  F  Dm 

Refrão: Am  Dm  F 
        Am  Dm  F  G 

Interlúdio: 
 
E|--------------------------| 
B|--------------------------| 
G|--------------------------| 
D|--------------------------| 
A|-7-6-5-3---7-6-5--3-7-6-5-| 
E|--------------------------| 
 

Variação: 
E|--------------------------| 
B|--------------------------| 
G|--------------------------| 
D|--------------------------| 
A|-7-6-5-3---7-6-5-------3--| 
E|------------------3p5r3--5| 

roll up this ad to continue

share this page

See Also: