E-Chords
The Julie Ruin

Oh Come On(Tabs)

The Julie Ruin

roll up this ad to continue

Intro and verse 1: 

E|----------------------| 
B|----------------------| 
G|--8----8--8--8----8---|  (Intro 8x, Verse 8x) 
D|--8----8--8--8----8---| 
A|--6----6--6--6----6---| 
E|----------------------| 

Bridge: 

E|--------------------------------------------------------------------------------------------------| 
B|--------------------------------------------------------------------------------------------------| 
G|--------------------------------------------------5--5--5--5--5--5--5--5--5--5--5--5--5--5--5--5--| 
D|--4--4--4--4--4--4--4--4--4--4--4--4--4--4--4--4--5--5--5--5--5--5--5--5--5--5--5--5--5--5--5--5--| 
A|--4--4--4--4--4--4--4--4--4--4--4--4--4--4--4--4--3--3--3--3--3--3--3--3--3--3--3--3--3--3--3--3--| 
E|--2--2--2--2--2--2--2--2--2--2--2--2--2--2--2--2--------------------------------------------------| 

                        Represent oh oh                         Everyday is brand new! 


verse 2: 

E|------------------------| 
B|------------------------| 
G|------------------------| 
D|----3----3--3--3----3---| (4x for rest, 8x verse 2) 
A|----3----3--3--3----3---| 
E|----1----1--1--1----1---| 


Bridge 2 

E|--------------------------------------------------------------------------------------------------| 
B|--------------------------------------------------------------------------------------------------| 
G|-----------------------------------------------------6--6--6--6--6--6--6--6--6--6--6--6--6--6--6--| 
D|--4--4--4--4--4--4--4--4--4--4--4--4--4--4--4--4--6--6--6--6--6--6--6--6--6--6--6--6--6--6--6--6--| 
A|--4--4--4--4--4--4--4--4--4--4--4--4--4--4--4--4--4--4--4--4--4--4--4--4--4--4--4--4--4--4--4--4--| 
E|--2--2--2--2--2--2--2--2--2--2--2--2--2--2--2--2--------------------------------------------------| 
                Everything is right now                                 Everybody needs you 



Solo: 

E|------------------------------------------------| 
B|------------------------------------------------| 
G|---------------------------------------8--8--8?-| (2x) 
D|--------------7--8--7--6--6------------8--8--8--| 
A|--6--6--9--6----------------6--9--6----6--6--6--| 
E|------------------------------------------------| 



Repeat verse 1 chords (8x) 
? Firse you walk, and then you dare to talk..? 

Repeat Bridge 1 
?Everybody says so, I don?t really think so? 


Repeat verse 2 chords 4x 

Then another 8x all the way until pause before last line 

E|-----------------------------------------------------| 
B|-----------------------------------------------------| 
G|---5--5--5--5--5--5--5--5--5--5--5--5--5--5--5--5--3-| 
D|---5--5--5--5--5--5--5--5--5--5--5--5--5--5--5--5--3-| 
A|---3--3--3--3--3--3--3--3--3--3--3--3--3--3--3--5--1-| 
E|-----------------------------------------------------| 
                                                Oh come on! 
share this page

See Also: