E-Chords
The Julie Ruin

Ha Ha Ha(Tabs)

The Julie Ruin

roll up this ad to continue

Intro: 
(0:00) 
Saw: 
e|--------------------------------------------------------------| 
B|--------------------------------------------------------------| 
G|----4-2-------------4-2-------------4-2-----4---4---4---4-5-4-| 
D|--------------------------------------------------------------| X4 
A|0---------------3---------------------------------------------| 
E|--------------------------------0---------------3-------------| 

(0:06) 
e|--------------------------------------------------------------| 
B|--------------------------------------------------------------| 
G|--------------------------------------------------------------| 
D|--------------------------------------------------------------| X8 
A|7-----------7--/10----------10-/14----------14-/12------------| 
E|5-----------5--/7-----------7--/12----------12-/10------------| 

(0:55) 
e|--------------------------------------------------------------| 
B|--------------------------------------------------------------| 
G|--------------------------------------------------------------| 
D|7---7-7---7-7--/10--1010--1010-/14-1414---1414-\12-1212---1412| X2 
A|--------------------------------------------------------------| 
E|--------------------------------------------------------------| 

(1:40) 
e|--------------------------------------------------------------| 
B|--------------------------------------------------------------| 
G|--------------------------------------------------------------| 
D|7---7-7---7-7--/10--1010--1010-/14-1414---1414-\12-1212---1412| X2 
A|--------------------------------------------------------------| 
E|--------------------------------------------------------------| 

e|--------------------------------------------------------------| 
B|--------------------------------------------------------------| 
G|--------------------------------------------------------------| 
D|7-7-7-7-7-7-7-7-7-7-7-7-7-7-7-7-7-7-7-7-7-7-7-7-7-7-7-7-7-7-7-| X1 
A|----------------------------------------------0-0-0-0-0-0-0-0-| 
E|--------------------------------------------------------------| 
                                                         let ring| 
e|-----------------------------------------------------------------| 
B|-----------------------------------------------------------------| 
G|*---7-7(7)-------------------------------------------------------| 
D|7---7-7---7-7--/10--1010--1010-/14-1414---1414-\12-1212---1412--7| X1 
A|-----------------------------------------------------------------| 
E|-----------------------------------------------------------------| 

(2:59) 
                                             second time let ring| 
e|-----------------------------------------------------------------| 
B|-----------------------------------------------------------------| 
G|*---7-7(7)-------------------------------------------------------| 
D|7---7-7---7-7--/10--1010--1010-/14-1414---1414-\12-1212---1412--7| X2 
A|-----------------------------------------------------------------| 
E|-----------------------------------------------------------------| 
share this page

See Also: